Oops, an error
Loading. Please wait.

Candy Tab

61 views 12 this week
no commentswrite comment
1 2 3 4 5
3 more votes to show rating
add to favorites
launch autoscroll
font size
0
reset
how to read this tab
guitar tuner
Autoscroll
slow
fast
+/-
esc
set tempo
stop
Help us to improve Ultimate-Guitar.com Take our survey!
×
Author
Difficulty
[Intro]

e|---------------------------------------------------------------------------|
B|---------------------------------------------------------------------------|
G|---------------------------------------------------------------------------|x4
D|-0-0-0-0-0-0-0-0-0-0-0-0-0-0-0-0-------------------------------------------|
A|-2-2-4-4-5-5-4-4-7-7-5-5-9-9-7-7-------------------------------------------|
E|-0-0-0-0-0-0-0-0-0-0-0-0-0-0-0-0-------------------------------------------|


[Verse]

e|---------------------------------------------------------------------------|
B|---------------------------------------------------------------------------|
G|---------------------------------------------------------------------------|
D|-0-0-0-0-0-0-0-0-0-0-0-0-0-0-0-0-------------------------------------------|
A|-2-2-4-4-5-5-4-4-7-7-5-5-9-9-7-7-------------------------------------------|
E|-0-0-0-0-0-0-0-0-0-0-0-0-0-0-0-0-------------------------------------------|
              ^repeat this part twice then play the top part                  x2
e|---------------------------------------------------------------------------|
B|---------------------------------------------------------------------------|
G|-9-9-6-6-11-11-6-6--13-13-9-9-14-14-11-9-----------------------------------|
D|-9-9-6-6-11-11-6-6--13-13-9-9-14-14-11-9-----------------------------------|
A|-7-7-4-4-9--9--4-4--11-11-7-7-12-12-9--7-----------------------------------|
E|---------------------------------------------------------------------------|
                                                                              

[Pre-Chorus]

e|---------------------------------------------------------------------------|
B|---------------------------------------------------------------------------|
G|---------------------------------------------------------------------------|x1
D|-0-0-0-0-0-0-0-0-0-0-0-0-0-0-0-0-0--0--0-0-0-0-0-0-0-0-0-0-0-0-0-0---------|
A|-2-2-4-4-5-5-4-4-7-7-5-5-9-9-7-7-11-11-9-9-7-7-9-9-5-5-7-7-4-4-5-5---------|
E|-0-0-0-0-0-0-0-0-0-0-0-0-0-0-0-0-0--0--0-0-0-0-0-0-0-0-0-0-0-0-0-0---------|


[Chorus]

e|---------------------------------------------------------------------------|
B|---------------------------------------------------------------------------|
G|-9-9/11\9-6-6--9-9/11\9-6--------------------------------------------------|x2
D|-9-9/11\9-6-6--9-9/11\9-6--------------------------------------------------|
A|-7-7/9-\7-4-4--7-7/9-\7-4--------------------------------------------------|
E|---------------------------------------------------------------------------|


[Bridge]

e|---------------------------------------------------------------------------|
B|---------------------------------------------------------------------------|
G|---------------------------------------------------------------------------|x4
D|-0-0-0-0-0-0-0-0-0-0-0--0--0--0--0--0-0-0-0-0------------------------------|
A|-2-2-2-2-2-6-6-6-6-6-11-11-11-11-11-7-7-7-7-7------------------------------|
E|-0-0-0-0-0-0-0-0-0-0-0--0--0--0--0--0-0-0-0-0------------------------------|

e|---------------------------------------------------------------------------|
B|---------------------------------------------------------------------------|
G|---------------------------------------------------------------------------|x4
D|-0-0-0-0-0-0-0-0-----------------------------------------------------------|
A|-0-0-0-0-0-0-0-0-----------------------------------------------------------|
E|-2-2-1-0-5-5-5-5-----------------------------------------------------------|

e|---------------------------------------------------------------------------|
B|---------------------------------------------------------------------------|
G|---------19-19-19-19-19----------------------------------------------------|x8
D|---------------------------------------------------------------------------|
A|-18-18-18------------------------------------------------------------------|
E|---------------------------------------------------------------------------|


[Verse]

e|---------------------------------------------------------------------------|
B|---------------------------------------------------------------------------|
G|---------------------------------------------------------------------------|
D|-0-0-0-0-0-0-0-0-0-0-0-0-0-0-0-0-------------------------------------------|
A|-2-2-4-4-5-5-4-4-7-7-5-5-9-9-7-7-------------------------------------------|
E|-0-0-0-0-0-0-0-0-0-0-0-0-0-0-0-0-------------------------------------------|
              ^repeat this part twice then play the top part                  x2
e|---------------------------------------------------------------------------|
B|---------------------------------------------------------------------------|
G|-9-9-6-6-11-11-6-6--13-13-9-9-14-14-11-9-----------------------------------|
D|-9-9-6-6-11-11-6-6--13-13-9-9-14-14-11-9-----------------------------------|
A|-7-7-4-4-9--9--4-4--11-11-7-7-12-12-9--7-----------------------------------|
E|---------------------------------------------------------------------------|
                                                                

[Pre-Chorus]

e|---------------------------------------------------------------------------|
B|---------------------------------------------------------------------------|
G|---------------------------------------------------------------------------|x1
D|-0-0-0-0-0-0-0-0-0-0-0-0-0-0-0-0-0--0--0-0-0-0-0-0-0-0-0-0-0-0-0-0---------|
A|-2-2-4-4-5-5-4-4-7-7-5-5-9-9-7-7-11-11-9-9-7-7-9-9-5-5-7-7-4-4-5-5---------|
E|-0-0-0-0-0-0-0-0-0-0-0-0-0-0-0-0-0--0--0-0-0-0-0-0-0-0-0-0-0-0-0-0---------|


[Chorus]

e|---------------------------------------------------------------------------|
B|---------------------------------------------------------------------------|
G|-9-9/11\9-6-6--9-9/11\9-6--------------------------------------------------|x2
D|-9-9/11\9-6-6--9-9/11\9-6--------------------------------------------------|
A|-7-7/9-\7-4-4--7-7/9-\7-4--------------------------------------------------|
E|---------------------------------------------------------------------------|


[Bridge]

e|---------------------------------------------------------------------------|
B|---------------------------------------------------------------------------|
G|---------------------------------------------------------------------------|x4
D|-0-0-0-0-0-0-0-0-0-0-0--0--0--0--0--0-0-0-0-0------------------------------|
A|-2-2-2-2-2-6-6-6-6-6-11-11-11-11-11-7-7-7-7-7------------------------------|
E|-0-0-0-0-0-0-0-0-0-0-0--0--0--0--0--0-0-0-0-0------------------------------|

e|---------------------------------------------------------------------------|
B|---------------------------------------------------------------------------|
G|---------------------------------------------------------------------------|x4
D|-0-0-0-0-0-0-0-0-----------------------------------------------------------|
A|-0-0-0-0-0-0-0-0-----------------------------------------------------------|
E|-2-2-1-0-5-5-5-5-----------------------------------------------------------|

e|---------------------------------------------------------------------------|
B|---------------------------------------------------------------------------|
G|---------------------------------------------------------------------------|x4
D|-0-0-0-0-0-0-0-0-0-0-0-0---------------------------------------------------|
A|-2-2-2-2-2-2-9-9-9-9-9-9---------------------------------------------------|
E|-0-0-0-0-0-0-0-0-0-0-0-0---------------------------------------------------|

e|---------------------------------------------------------------------------|
B|---------------------------------------------------------------------------|
G|---------19-19-19-19-19----------------------------------------------------|x10
D|---------------------------------------------------------------------------|
A|-18-18-18------------------------------------------------------------------|
E|---------------------------------------------------------------------------|


[Outro]

e|---------------------------------------------------------------------------|
B|---------------------------------------------------------------------------|
G|-9-9/11\9-6-6--9-9/11\9-6--------------------------------------------------|
D|-9-9/11\9-6-6--9-9/11\9-6--------------------------------------------------|
A|-7-7/9-\7-4-4--7-7/9-\7-4--------------------------------------------------|
E|---------------------------------------------------------------------------|
                            Repeat till end

************************************

| /   Slide up
| \   Slide down

************************************
Suggest correction
Give kudos to tab author, rate the tab!
1 2 3 4 5
comments
print report bad tab
guest
You may want to rate the tab now too:
select rating
Wanna post a correction for this tab? Suggest correction