Oops, an error
Loading. Please wait.

Come Back Tab

142 views 18 this week
no commentswrite comment
1 2 3 4 5
x 3
add to favorites
launch autoscroll
font size
0
reset
how to read this tab
guitar tuner
Autoscroll
slow
fast
+/-
esc
set tempo
stop
Help us to improve Ultimate-Guitar.com Take our survey!
×
Author
Difficulty
intermediate
[Intro]
e|---------------------------------------------------------------------------|
B|-------------0-0-0-0---------0--0-0-----------0-0-0-0-0-----2-0------------|
G|-6-6--2-2-2--1-1-1-2-------1-1--1-1-----------1-1-1-1-1-----2-2------------|x1
D|-7-7--4-4-4--2-2-2-2-2-2-0-2-2--2-2-0-2-2-2-2-2-2-2-2-2-2-2-2-2------------|
A|-5-5--2-2-2--0-0-0-0-4-4-0-2-2--2-2-0-4-4-4-4-2-2-2-2-2-4-4-0-0------------|
E|---------------------2-2-0-0-0--0-0-0-2-2-2-2-0-0-0-0-0-2-2----------------|

[Verse]
e|---------------------------------------------------------------------------|
B|-------------0-0-0-0---------0--0-0-----------0-0-0-0-0--------------------|
G|-6-6--2-2-2--1-1-1-2-------1-1--1-1-----------1-1-1-1-1--------------------|x1
D|-7-7--4-4-4--2-2-2-2-2-2-0-2-2--2-2-0-2-2-2-2-2-2-2-2-2-2-2-2-2------------|
A|-5-5--2-2-2--0-0-0-0-4-4-0-2-2--2-2-0-4-4-4-4-2-2-2-2-2-4-4-4-4------------|
E|---------------------2-2-0-0-0--0-0-0-2-2-2-2-0-0-0-0-0-2-2-2-2------------|

[Bridge]
e|---------------------------------------------------------------------------|
B|/17-17-17-17\14-14-14-14\12-12-12-12\9-9-9-9-------------------------------|
G|---------------------------------------------------------------------------|
D|---------------------------------------------------------------------------|
A|---------------------------------------------------------------------------|
E|---------------------------------------------------------------------------|

e|---------------------------------------------------------------------------|
B|--5-7-5-7------------------------------------------------------------------|
G|-6-6-6-6-------------------------------------------------------------------|
D|---------------------------------------------------------------------------|
A|---------------------------------------------------------------------------|
E|---------------------------------------------------------------------------|
                                                                              x2 all together
e|---------------------------------------------------------------------------|
B|---17--19--17--19----------------------------------------------------------|
G|-18--18--18--18------------------------------------------------------------|
D|---------------------------------------------------------------------------|
A|---------------------------------------------------------------------------|
E|---------------------------------------------------------------------------|

e|---------------------------------------------------------------------------|
B|-----------------0-0-0-0---------------------------------------------------|
G|-6-6-6-6-2-2-2-2-1-1-1-1---------------------------------------------------|
D|-7-7-7-7-4-4-4-4-2-2-2-2-2-2-2-2-------------------------------------------|
A|-5-5-5-5-2-2-2-2-0-0-0-0-4-4-4-4-------------------------------------------|
E|-------------------------2-2-2-2-------------------------------------------|


[Verse]
this:
e|---------------------------------------------------------------------------|
B|---17--19--17--19--17--19--19b-17------------------------------------------|
G|-18--18--18--18--18--18--18------18-16-------------------------------------| x1
D|---------------------------------------------------------------------------|
A|---------------------------------------------------------------------------|
E|---------------------------------------------------------------------------|
Goes straight into this: 
also the verses end with bends on the e-hi string on the 17th fret and then
the 19th fret                     
e|---------------------------------------------------------------------------|
B|---------------------------------------------------------------------------|
G|--11-11h13-13-13-13-13-13-16-13-13-13-13-13-13-----------------------------|
D|---------------------------------------------------------------------------|
A|---------------------------------------------------------------------------|
E|---------------------------------------------------------------------------|
                                                                              x2
e|---------------------------------------------------------------------------|
B|-------------0-0-0-0---------0--0-0-----------0-0-0-0-0--------------------|
G|-6-6--2-2-2--1-1-1-2-------1-1--1-1-----------1-1-1-1-1--------------------|
D|-7-7--4-4-4--2-2-2-2-2-2-0-2-2--2-2-0-2-2-2-2-2-2-2-2-2-2-2-2-2------------|
A|-5-5--2-2-2--0-0-0-0-4-4-0-2-2--2-2-0-4-4-4-4-2-2-2-2-2-4-4-4-4------------|
E|---------------------2-2-0-0-0--0-0-0-2-2-2-2-0-0-0-0-0-2-2-2-2------------|

[Bridge]
e|---------------------------------------------------------------------------|
B|---------------------------------------------------------------------------|
G|-1-1-8-8-8-2-2-6-6-6-------------------------------------------------------|x4
D|-2-2-9-9-9-4-4-7-7-7-------------------------------------------------------|
A|-2-2-9-9-9-4-4-7-7-7-------------------------------------------------------|
E|-0-0-7-7-7-2-2-5-5-5-------------------------------------------------------|

[Chorus]
e|---------------------------------------------------------------------------|
B|------------------------------------15/17----------------------------------|
G|-------21------------------------------------------------------------------|x1
D|---19----19-18-19p18-16-18p16-14-11----------------------------------------|
A|-21--21--------------------------------------------------------------------|
E|---------------------------------------------------------------------------|

e|---------------------------------------------------------------------------|
B|/17-17-17-17\14-14-14-14\12-12-12-12\9-9-9-9-------------------------------|
G|---------------------------------------------------------------------------|
D|---------------------------------------------------------------------------|
A|---------------------------------------------------------------------------|
E|---------------------------------------------------------------------------|
                                                                              x2
e|---------------------------------------------------------------------------|
B|-----------------0-0-0-0---------------------------------------------------|
G|-6-6-6-6-2-2-2-2-1-1-1-1---------------------------------------------------|
D|-7-7-7-7-4-4-4-4-2-2-2-2-2-2-2-2-------------------------------------------|
A|-5-5-5-5-2-2-2-2-0-0-0-0-4-4-4-4-------------------------------------------|
E|-------------------------2-2-2-2-------------------------------------------|

[Verse]
e|---------------------------------------------------------------------------|
B|/17-17-17-17\14-14-14-14\12-12-12-12\9-9-9-9-------------------------------|
G|---------------------------------------------------------------------------|
D|---------------------------------------------------------------------------|
A|---------------------------------------------------------------------------|
E|---------------------------------------------------------------------------|
  this/\ and this\/ are played one after the other
e|---------------------------------------------------------------------------|
B|---------------------------------------------------------------------------|
G|--11-11h13-13-13-13-13-13-16-13-13-13-13-13-13-----------------------------|x2
D|---------------------------------------------------------------------------|
A|---------------------------------------------------------------------------|
E|---------------------------------------------------------------------------|

e|---------------------------------------------------------------------------|
B|-------------0-0-0-0---------0--0-0-----------0-0-0-0-0--------------------|
G|-6-6--2-2-2--1-1-1-2-------1-1--1-1-----------1-1-1-1-1--------------------|
D|-7-7--4-4-4--2-2-2-2-2-2-0-2-2--2-2-0-2-2-2-2-2-2-2-2-2-2-2-2-2------------|
A|-5-5--2-2-2--0-0-0-0-4-4-0-2-2--2-2-0-4-4-4-4-2-2-2-2-2-4-4-4-4------------|
E|---------------------2-2-0-0-0--0-0-0-2-2-2-2-0-0-0-0-0-2-2-2-2------------|

[Bridge/Breakdown Thing]
Chords start fast then get more drawn out as it goes:
e|---------------------------------------------------------------------------|
B|---------------------------------------------------------------------------|
G|-1-1-1-1-8-8-8-8-2-2-2-2-6-6-6-6-------------------------------------------|x15
D|-2-2-2-2-9-9-9-9-4-4-4-4-7-7-7-7-------------------------------------------|
A|-2-2-2-2-9-9-9-9-4-4-4-4-7-7-7-7-------------------------------------------|
E|-0-0-0-0-7-7-7-7-2-2-2-2-5-5-5-5-------------------------------------------|
improvise on this idea here:
e|---------------------------------------------------------------------------|
B|---------------------------------------------------------------------------|
G|--11-11h13-13-13-13-13-13-16-13-13-13-13-13-13-----------------------------|x7
D|---------------------------------------------------------------------------|
A|---------------------------------------------------------------------------|
E|---------------------------------------------------------------------------|

[Outro]
e|---------------------------------------------------------------------------|
B|---------------------------------------------------------------------------|
G|-6-6-6-6-6-6-6-6-6-6-1-1-1-1-1-1-1-1-1-1-8---------------------------------|x1
D|-7-7-7-7-7-7-7-7-7-7-2-2-2-2-2-2-2-2-2-2-9---------------------------------|
A|-7-7-7-7-7-7-7-7-7-7-2-2-2-2-2-2-2-2-2-2-9---------------------------------|
E|-5-5-5-5-5-5-5-5-5-5-0-0-0-0-0-0-0-0-0-0-7---------------------------------|


************************************

| /  Slide up
| \  Slide down
| x  Dead note
| b  Bend
| h  Hammer-on
| p  Pull-off 

************************************
Suggest correction
Give kudos to tab author, rate the tab!
1 2 3 4 5
comments
print report bad tab
guest
You may want to rate the tab now too:
select rating
Wanna post a correction for this tab? Suggest correction