Oops, an error
Loading. Please wait.

County solo tab

by Alex G
214 views 3 this week
no commentswrite comment
1 2 3 4 5
x 4
add to favorites
×
Save as Personal and add changes to this tab that will be seen only by you. Learn more ›
×
You can save this tab as Personal to edit and correct it or add notes. All changes will be seen only by you. Learn more »
launch autoscroll
font size
0
reset
how to read this tab
guitar tuner
edit
Autoscroll
slow
fast
+/-
esc
set tempo
stop
I split the solo up into 2 parts, Part 1 being the solo in the middle and Part 2 being the solo at the end.
I'm pretty positive on everything note wise, but I may have missed some slides or something like that. The
spacing also won't be too accurate so I suggest you listen to the song and familiarize yourself how the solo 
is played.

[Solo]
[Part 1]
e|---------------------------------------------------------------------------|
B|---------------------------------------------------------------8/9\8-------|
G|-----------------------5b6-----------5---7-5-7-7/8-7-5---5-5---------9p7-9-|
D|---7---------5---5-6-7-----7---5-6-7---7---------------7-------------------|
A|-------5-6-7---7-----------------------------------------------------------|
E|---------------------------------------------------------------------------|

e|--------------8/10--------------------------8-10-10b11r10-8----8-----------|
B|----8/9\8----------10----6-8-8--8-9-9--9-10-----------------10---10-10p8---|
G|-7--------9-7----------9-------------------------------------------------9-|
D|---------------------------------------------------------------------------|
A|---------------------------------------------------------------------------|
E|---------------------------------------------------------------------------|

e|------------------------------------------------------12-15/17-------------|
B|-8---5h6-5h6-8--6-5-4-5-------------------------13-15----------17-15h17-15-|
G|------------------------7-5---------------12-14----------------------------|
D|------------------------------------12-14----------------------------------|
A|------------------------------12-15----------------------------------------|
E|---------------------------------------------------------------------------|

e|-------------------12-15/17---------------------------------------------7*-|
B|-13---15//16-15--13---------17-15h17-15-13--------13----15-13-15-15/17--7*-|
G|--------------------------------------------12h14----14-----------------7*-|
D|------------------------------------------------------------------------7*-|
A|------------------------------------------------------------------------7*-|
E|------------------------------------------------------------------------7*-|

[Part 2]
e|-----------------------------------------5-------------------5-----8-5-----|
B|-------------------------------------------5-------------------5---------5-|
G|---5-5----2/4-2-4-2----------------5-7b9-----8-7-5---5-7-7b9-----7-----7---|
D|----------------------5--------5h7-----------------7-----------------------|
A|------------------------7-6-7----------------------------------------------|
E|---------------------------------------------------------------------------|

e|---------------------------------------------------12-10-8----8-7----------|
B|-5-5/6-6-6/8-10-10/12-12-12/13-15-15/17-15-13---13---------10-----8-8/10-8-|
G|---------------------------------------------------------------------------|
D|---------------------------------------------------------------------------|
A|---------------------------------------------------------------------------|
E|---------------------------------------------------------------------------|

e|---------------------------------------------------------------------------|
B|---------------------------------------------------------------------------|
G|-9-------------------------------------------------------------------------|
D|---10----------------------------------------------------------------------|
A|---------------------------------------------------------------------------|
E|---------------------------------------------------------------------------|


***********************************

| h   Hammer-on
| p   Pull-off
| r   Release
| b   Bend
| /   Slide up
| \   Slide down
| *   Harmonic

************************************

            
            
Suggest correction
Creating personal tab
Creating personal tab
You can edit any tab online and save it as your Personal.

You can edit, replace or remove any tab part or add personal notes – all changes will be seen only by you.

Personal tabs can be accessed anytime from any device, even offline.
Learn more »
comments
print report bad tab
guest
You may want to rate the tab now too:
select rating
Wanna post a correction for this tab? Suggest correction