Oops, an error
Loading. Please wait.

Forever tab

version 2
version 2

Whole song

  • Other tabs have some fundamental note errors and a... Show more
by Alex G
214 views 3 this week
1 commentread comment
1 2 3 4 5
3 more votes to show rating
add to favorites
×
Save as Personal and add changes to this tab that will be seen only by you. Learn more ›
×
You can save this tab as Personal to edit and correct it or add notes. All changes will be seen only by you. Learn more »
launch autoscroll
font size
0
reset
how to read this tab
guitar tuner
edit
Autoscroll
slow
fast
+/-
esc
set tempo
stop
Author
Difficulty
About this tab version
Other tabs have some fundamental note errors and are missing the post-chorus part. Was this info helpful? Yes No
Listen for timing/strumming pattern. 

[Intro]

e|----------------------------|
B|----------------------------|
G|----------------------------|
D|-2----2--2-2--3-3-3-3-3-x-x-| x4
A|-4----4--4-4--4-4-4-4-4-x-x-| 
E|-0----0--0-0--2-2-2-2-2-x-x-|

[Pre-Verse (Guitar 1)] 

e|--------------------------|-----------------------------|
B|--------------------------|-----------------------------|
G|--------------------------|-----------------------------|
D|-6----6--6-6--6-6--6--6-6-|-4----4--4-4-4-4-4-4-4-4-4-4-| x2
A|-7----7--7-7--7-7--7--7-7-|-4----4--4-4-4-4-4-4-4-4-4-4-| 
E|-5----5--5-5--0-0--0--0-0-|-2----2--2-2-0-2-2-2-0-2-2-2-|

[Pre-Verse (Guitar 2)] 

e|-7-------7-------|
B|---9-------------|
G|-----------9-----|
D|-----------------| x4
A|-----------------|
E|-----------------|

[Verse]

e|--------------------------|-----------------------------|
B|--------------------------|-----------------------------|
G|--------------------------|-----------------------------|
D|-6----6--6-6--6-6--6--6-6-|-4----4--4-4-4-4-4-4-4-4-4-4-| x4
A|-7----7--7-7--7-7--7--7-7-|-4----4--4-4-4-4-4-4-4-4-4-4-|
E|-5----5--5-5--0-0--0--0-0-|-2----2--2-2-0-2-2-2-0-2-2-2-|

[Chorus]

e|--------------------------|-----------------------------|
B|--------------------------|-----------------------------|
G|--------------------------|-----------------------------|
D|-6----6--6-6--6-6--6--6-6-|-4----4--4-4-4-4-4-4-4-4-4-4-| x2
A|-7----7--7-7--7-7--7--7-7-|-4----4--4-4-4-4-4-4-4-4-4-4-|
E|-5----5--5-5--0-0--0--0-0-|-2----2--2-2-0-2-2-2-0-2-2-2-|

[Post-Chorus]

Strumming pattern not shown but these are the chords.

  Bmajadd9    Amajadd9   Dmaj7      Dmaj9(no 3rd)

e|-9----------7----------2----------0----------|
B|-7----------5----------2----------2----------|
G|-8----------6----------2----------2----------|
D|-x----------x----------0----------0----------| x4
A|-9----------7----------0----------0----------|
E|-7----------5--------------------------------|

[Intro]

e|----------------------------|
B|----------------------------|
G|----------------------------|
D|-2----2--2-2--3-3-3-3-3-x-x-| x4
A|-4----4--4-4--4-4-4-4-4-x-x-|
E|-0----0--0-0--2-2-2-2-2-x-x-|

[Verse]
 
e|--------------------------|-----------------------------|
B|--------------------------|-----------------------------|
G|--------------------------|-----------------------------|
D|-6----6--6-6--6-6--6--6-6-|-4----4--4-4-4-4-4-4-4-4-4-4-| x2
A|-7----7--7-7--7-7--7--7-7-|-4----4--4-4-4-4-4-4-4-4-4-4-|
E|-5----5--5-5--0-0--0--0-0-|-2----2--2-2-0-2-2-2-0-2-2-2-|

[Chorus]

e|--------------------------|-----------------------------|
B|--------------------------|-----------------------------|
G|--------------------------|-----------------------------|
D|-6----6--6-6--6-6--6--6-6-|-4----4--4-4-4-4-4-4-4-4-4-4-| x2
A|-7----7--7-7--7-7--7--7-7-|-4----4--4-4-4-4-4-4-4-4-4-4-|
E|-5----5--5-5--0-0--0--0-0-|-2----2--2-2-0-2-2-2-0-2-2-2-|

{Post Chorus]

e|-9----------7----------2----------0----------|
B|-7----------5----------2----------2----------|
G|-8----------6----------2----------2----------|
D|-x----------x----------0----------0----------| x4
A|-9----------7----------0----------0----------|
E|-7----------5--------------------------------|

[Outro]

e|-2----------0----------|
B|-2----------2----------|
G|-2----------2----------|
D|-0----------0----------| x3
A|-0----------0----------|
E|-----------------------|

e|------------------------------|
B|------------------------------|
G|------------------------------|
D|-2----2--2-2--3-3-3-3-3-x-x-2-|
A|-4----4--4-4--4-4-4-4-4-x-x-4-|
E|-0----0--0-0--2-2-2-2-2-x-x-0-|

END

**************************************************************************************************************

x = dead note




            
            
Suggest correction
Creating personal tab
Creating personal tab
You can edit any tab online and save it as your Personal.

You can edit, replace or remove any tab part or add personal notes – all changes will be seen only by you.

Personal tabs can be accessed anytime from any device, even offline.
Learn more »
Give kudos to tab author, rate the tab!
1 2 3 4 5
comments
print report bad tab
1 comment total.
0 reply
mclovinmclovin 10 Aug 15, 2017 04:35 PM

do you know what the solo is?

guest
You may want to rate the tab now too:
select rating
Wanna post a correction for this tab? Suggest correction