Oops, an error
Loading. Please wait.

Gnaw Tab

version 2
version 2

Whole song

178 views 24 this week
no commentswrite comment
1 2 3 4 5
3 more votes to show rating
add to favorites
launch autoscroll
font size
0
reset
how to read this tab
guitar tuner
Autoscroll
slow
fast
+/-
esc
set tempo
stop
Help us to improve Ultimate-Guitar.com Take our survey!
×
Author
Difficulty
This is all the lead work from the recording, if i figure out more ill add it
to this particularly on the intro which has alot of different notes all at once
which makes it hard to tab

[Intro]

e|---10-------------------10--10----10-------------10-10---------------------|
B|----------12~~--12br--------------------12~br---------12~br----------------|
G|-12--12--9-----9------12--12----12-------------12-12--------12-------------|
D|---------------------------------------------------------------------------|
A|---------------------------------------------------------------------------|
E|---------------------------------------------------------------------------|

e|-7-10----------------------------------------------------------------------|
B|-8-8-8-8-12-8-12-8-8--5-5-5-5/8-8-8/10--10-10/12--12/15--15/17--17/20-17-20|
G|-------------------------7-------9----12--------14-----16-----19-----------|
D|---------------------------------------------------------------------------|
A|---------------------------------------------------------------------------|
E|---------------------------------------------------------------------------|

e|-17--17-20--20--20--20--17--17-19~~br--------------------------------------|
B|---20-----20--20--20--20--20-----------------------------------------------|
G|---------------------------------------------------------------------------|
D|---------------------------------------------------------------------------|
A|---------------------------------------------------------------------------|
E|---------------------------------------------------------------------------|


[Verse]
yeah you were scarred....
e|-----||--7-10-----------------------------------------------------|
B|-12*-||-8----12-8-8--8\/5-3-5-5/8-5-8-8/10-8-10-10/12-10-8--------|
G|-12*-||------------11---------------------------------------------|
D|-12*-||-----------------------------------------------------------|
A|-----||-----------------------------------------------------------|
E|-----||-----------------------------------------------------------|
and yeah i felt good....
e|--7-10------------------------------------------------------------|
B|-8----12-8-8-7-8\/5-3-5-5/8-5-8-8/10-8-10-10/12-10-8--------------|
G|------------------------------------------------------------------|
D|------------------------------------------------------------------|
A|------------------------------------------------------------------|
E|------------------------------------------------------------------|
i saw the tree....
e|--10-10-7h10---0-3-0-5-5-3-5/7-8--5-8--8-/10-8--7-----------------|
B|-8----------8\/5-3-5-5/8-5-8-8/10-8-10-10/12-10-8-----------------|
G|------------------------------------------------------------------|
D|------------------------------------------------------------------|
A|------------------------------------------------------------------|
E|------------------------------------------------------------------|
but i am no fool....
e|------10----------------------------------------------------------|
B|-10-12--12-8\/5-3-5-5/8-5-8-8/10-8-10-10/12-10-8------------------|
G|------------------------------------------------------------------|
D|------------------------------------------------------------------|
A|------------------------------------------------------------------|
E|------------------------------------------------------------------|


[Chorus]

e|------------------------------------------------------------------|
B|-/5-3-5-5/8-5-8-8/10-8-10-10/12-10-12-12/15~~~~~~12~~~~8~~-8-8-8--|
G|------------------------------------------------------------------|
D|------------------------------------------------------------------|
A|------------------------------------------------------------------|
E|------------------------------------------------------------------|

e|--------------------------------------------------------7-7-------|
B|-/5-3-5-5/8-5-8-8/10-8-10-10/12-10-12-12/15~~~~12-15-8------------|
G|------------------------------------------------------------------|
D|------------------------------------------------------------------|
A|------------------------------------------------------------------|
E|------------------------------------------------------------------|

e|-----------------------------------------------------------------------------|
B|-/5-3-5-5/8-5-8-8/10-8-10-10/12-10-12-12/15~~~~~~12~~~~8~~-8br-8br-----------|
G|-----------------------------------------------------------------------------|
D|-----------------------------------------------------------------------------|
A|-----------------------------------------------------------------------------|
E|-----------------------------------------------------------------------------|

e|---------------------------------------------------------------------------|
B|-/5-3-5-5/8-5-8-8/10-8-10-10/12-10-12-12/15~~~~~~12~~~~8~~-8-8~b~r-8~b~r---|
G|---------------------------------------------------------------------------|
D|---------------------------------------------------------------------------|
A|---------------------------------------------------------------------------|
E|---------------------------------------------------------------------------|


[Outro]

e|----12-10------7-5h7-5-3p0-----7-5h7-5-3p0-----7-5h7-7/10-7----------------|
B|---------------------------------------------------------------------------|
G|-0-------------------------------------------------------------------------|
D|---------------------------------------------------------------------------|
A|----------7-7--------------------------------------------------------------|
E|---------------------------7-7-------------8-8-----------------------------|

e|----12-10h12-10-7-----7-5h7-5-3p0-----7-5h7-5-3p0-----7-5h7-7/10-7---------|
B|---------------------------------------------------------------------------|
G|-0-------------------------------------------------------------------------|
D|---------------------------------------------------------------------------|
A|------------------7-7------------------------------------------------------|
E|----------------------------------7-7-------------8-8----------------------|
dry your eyes....
e|----12-10h12-10-7-----7-5h7-5-3p0-----7-5h7-5-3p0-----7-5h7-7/10-7---------|
B|---------------------------------------------------------------------------|
G|-0-------------------------------------------------------------------------|
D|---------------------------------------------------------------------------|
A|------------------7-7------------------------------------------------------|
E|----------------------------------7-7-------------8-8----------------------|
please don't cry....
e|----12~~~~10~7-----7-5h7-5-3p0-----7-5h7-5-3p0-----7-5h7-7/10-7------------|
B|---------------------------------------------------------------------------|
G|-0-------------------------------------------------------------------------|
D|---------------------------------------------------------------------------|
A|---------------7-7---------------------------------------------------------|
E|--------------------------------7-7-------------8-8------------------------|

e|----12-10h12-10-7-----7-5h7-5-3p0-----7-5h7-5-3p0-----7-5h7-7/10-7---------|
B|---------------------------------------------------------------------------|
G|-0-------------------------------------------------------------------------|
D|---------------------------------------------------------------------------|
A|------------------7-7------------------------------------------------------|
E|----------------------------------7-7-------------8-8----------------------|

e|----12~~~~10~7-----7-5h7-5-3p0-----7-5h7-5-3p0-----7-5h7-7/10-7------------|
B|---------------------------------------------------------------------------|
G|-0-------------------------------------------------------------------------|
D|---------------------------------------------------------------------------|
A|---------------7-7---------------------------------------------------------|
E|-------------------------------7-7-------------8-8-------------------------|


************************************

| h   Hammer-on
| p   Pull-off
| br  Bend release
| /   Slide up
| \   Slide down
| *   Harmonic

************************************
Suggest correction
Give kudos to tab author, rate the tab!
1 2 3 4 5
comments
print report bad tab
guest
You may want to rate the tab now too:
select rating
Wanna post a correction for this tab? Suggest correction