Oops, an error
Loading. Please wait.

Harvey tab

version 2
version 2

Whole song

by Alex G
511 views 3 this week
1 commentread comment
1 2 3 4 5
1 last vote to show rating
add to favorites
×
Save as Personal and add changes to this tab that will be seen only by you. Learn more ›
×
You can save this tab as Personal to edit and correct it or add notes. All changes will be seen only by you. Learn more »
launch autoscroll
font size
0
reset
how to read this tab
guitar tuner
edit
Autoscroll
slow
fast
+/-
esc
set tempo
stop
Difficulty
-------------------------------------------------------------------------------
                             HARVEY - Alex G
-------------------------------------------------------------------------------
I'm basically going to tell you what to strum but you have to figure out the strum 
pattern. This is a 100% accurate version.

Tuning: Standard

Just repeat this pattern

e|-------------------------------------------------------------------------------|
B|-------------------------------------------------------------------------------|
G|-------------------------------------------------------------------------------|
D|-0----0---0-----0---0--0-0---0---0-0-------------------------------------------|
A|-3----5---10----2---0--1/2---0---1/2-------------------------------------------|
E|-3----5---10----2---0--1/2---0---1/2-------------------------------------------|

Ends like this...

e|-------------------------------------------------------------------------------|
B|-------------------------------------------------------------------------------|
G|-------------------------------------------------------------------------------|
D|--0--0-0---0-------------------------------------------------------------------|
A|--0--1/2---3-------------------------------------------------------------------|
E|--0--1/2---3-------------------------------------------------------------------|

/ slide up

Thanks for looking. You can find videos on youtube and the music video to prove I'm right.
Logan B.

************************************

            
            
Suggest correction
Creating personal tab
Creating personal tab
You can edit any tab online and save it as your Personal.

You can edit, replace or remove any tab part or add personal notes – all changes will be seen only by you.

Personal tabs can be accessed anytime from any device, even offline.
Learn more »
Give kudos to tab author, rate the tab!
1 2 3 4 5
comments
print report bad tab
1 comment total.
0 reply
HYSTERlA 10 Dec 23, 2015 11:38 AM

tuning is drop d, goes from 10 to 3 as well

guest
Wanna post a correction for this tab? Suggest correction