Oops, an error
Loading. Please wait.

Hollow Tab

85 views 6 this week
no commentswrite comment
1 2 3 4 5
3 more votes to show rating
add to favorites
launch autoscroll
font size
0
reset
how to read this tab
guitar tuner
Autoscroll
slow
fast
+/-
esc
set tempo
stop
Help us to improve Ultimate-Guitar.com Take our survey!
×
Author
Difficulty
Tuning
intermediate
D G D G B D
[Intro]

e |---------------------------------------------------------------------------|
B |---------------------------------------------------------------------------|
F#|-12-12-12-12-12-12-12\7-7-7-7-7-7-5-5-5-5-5-0-0-0-0-5-5-5-5-0-0-0-0-5-5-5-5|x1
B |-10-10-10-10-10-10-10\5-5-5-5-5-5-5-5-5-5-5-0-0-0-0-0-0-0-0-0-0-0-0-0-0-0-0|
G |-11-11-11-11-11-11-11\6-6-6-6-6-6-5-5-5-5-5-7-7-7-7-7-7-7-7-7-7-7-7-7-7-7-7|
D |-12-12-12-12-12-12-12\7-7-7-7-7-7-7-7-7-7-7-5-5-5-5-5-5-5-5-5-5-5-5-5-5-5-5|


[Verse]

e |---------------------------------------------------------------------------|
B |---------------------------------------------------------------------------|
F#|---------------------------------------------------------------------------|
B |---------------------------------------------------------------------------|
G |-2--2--2-2-2-2-2-2-4--4--4-4-4-4-4-4/7-7-7-7\4-4-4-4-7-7-7-7\4-4-4-4-------|
D |-0--0--0-0-0-0-0-0-2--2--2-2-2-2-2-2/5-5-5-5\2-2-2-2/5-5-5-5\2-2-2-2-------|
                                                                               x1
e |------10-----------------7---------------------7-------7------7------7---7*|
B |-----7------------------7---------------------7-------7------7------7----7*|
F#|----8------------------8---------------------10------8------10-----8-----7*|
B |---7------------------7---------------------7-------10-----7------10-----7*|
G |--7------------------9---------------------9-------9------9------9---------|
D |-7------------------7---------------------7-------7------7------7----------|


[Pre-Chorus]

e |---------------------------------------------------------------------------|
B |---------------------------------------------------------------------------|
F#|-12-12-12-12-12-12-12-12-5-5-5-5-5-5-5-5-----------------------------------|x1
B |-10-10-10-10-10-10-10-10-5-5-5-5-5-5-5-5-----------------------------------|
G |-11-11-11-11-11-11-11-11-5-5-5-5-5-5-5-5-7-7-7-7-7-7-7-7-2-2-2-2-2-2-2-2---|
D |-12-12-12-12-12-12-12-12-7-7-7-7-7-7-7-7-5-5-5-5-4-4-4-4-0-0-0-0-0-0-0-0---|


[Chorus]

e |---------------------------------------------------------------------------|
B |---------------------------------------------------------------------------|
F#|---------------------------------------------------------------------------|x1
B |-5-5-5-5-5-5-5-5-8-8-8-8-8-8-8-8-------------------------------------------|
G |-4-4-4-4-4-4-4-4-7-7-7-7-7-7-7-7-11-11-11-11-11-11-11-11-9-9-9-9-9-9-9-9---|
D |-2-2-2-2-2-2-2-2-5-5-5-5-5-5-5-5-9--9--9--9--8--8--8--8--7-7-7-7-6-6-6-6---|


[Bridge]

e |---------------------------------------------------------------------------|
B |---------------------------------------------------------------------------|
F#|---------------------------------------------------------------------------|x2
B |---------------------------------------------------------------------------|
G |-7-7-7-7-7-7-7-7-7-7-7-7-7-7-7-7-7-7-7-7-7-7-7-7-7-7-7-7-7-7-7-7-7-7-------|
D |-5-5-5-5-0-0-5-5-5-5-0-0-5-5-5-5-0-4-4-4-4-0-0-4-4-4-4-0-0-4-4-4-4-0-------|


[Verse]

e |---------------------------------------------------------------------------|
B |---------------------------------------------------------------------------|
F#|---------------------------------------------------------------------------|x2
B |---------------------------------------------------------------------------|
G |-2--2--2-2-2-2-2-2-4--4--4-4-4-4-4-4/7-7-7-7\4-4-4-4-7-7-7-7\4-4-4-4-------|
D |-0--0--0-0-0-0-0-0-2--2--2-2-2-2-2-2/5-5-5-5\2-2-2-2/5-5-5-5\2-2-2-2-------|
                                                                               
e |-------------------0-------------------------------------------------------|
B |/5--5---------0--3---------------------------------------------------------|
F#|/6----6--0--1--------------------------------------------------------------|x8
B |---------------------------------------------------------------------------|
G |---------------------------------------------------------------------------|
D |---------------------------------------------------------------------------|


[Pre-Chorus]

e |---------------------------------------------------------------------------|
B |---------------------------------------------------------------------------|
F#|-12-12-12-12-12-12-12-12-5-5-5-5-5-5-5-5-----------------------------------|x1
B |-10-10-10-10-10-10-10-10-5-5-5-5-5-5-5-5-----------------------------------|
G |-11-11-11-11-11-11-11-11-5-5-5-5-5-5-5-5-7-7-7-7-7-7-7-7-2-2-2-2-2-2-2-2---|
D |-12-12-12-12-12-12-12-12-7-7-7-7-7-7-7-7-5-5-5-5-4-4-4-4-0-0-0-0-0-0-0-0---|


[Chorus]

e |---------------------------------------------------------------------------|
B |---------------------------------------------------------------------------|
F#|---------------------------------------------------------------------------|x1
B |-5-5-5-5-5-5-5-5-8-8-8-8-8-8-8-8-------------------------------------------|
G |-4-4-4-4-4-4-4-4-7-7-7-7-7-7-7-7-11-11-11-11-11-11-11-11-9-9-9-9-9-9-9-9---|
D |-2-2-2-2-2-2-2-2-5-5-5-5-5-5-5-5-9--9--9--9--8--8--8--8--7-7-7-7-6-6-6-6---|

[Bridge]

e |---------------------------------------------------------------------------|
B |---------------------------------------------------------------------------|
F#|---------------------------------------------------------------------------|x2
B |---------------------------------------------------------------------------|
G |-7-7-7-7-7-7-7-7-7-7-7-7-7-7-7-7-7-7-7-7-7-7-7-7-7-7-7-7-7-7-7-7-7-7-------|
D |-5-5-5-5-0-0-5-5-5-5-0-0-5-5-5-5-0-4-4-4-4-0-0-4-4-4-4-0-0-4-4-4-4-0-------|


[Verse]

e |---------------------------------------------------------------------------|
B |---------------------------------------------------------------------------|
F#|---------------------------------------------------------------------------|x3
B |---------------------------------------------------------------------------|
G |-2--2--2-2-2-2-2-2-4--4--4-4-4-4-4-4/7-7-7-7\4-4-4-4-7-7-7-7\4-4-4-4-------|
D |-0--0--0-0-0-0-0-0-2--2--2-2-2-2-2-2/5-5-5-5\2-2-2-2/5-5-5-5\2-2-2-2-------|

e |-------------------0-------------------------------------------------------|
B |/5--5---------0--3---------------------------------------------------------|
F#|/6----6--0--1--------------------------------------------------------------|x12
B |---------------------------------------------------------------------------|
G |---------------------------------------------------------------------------|
D |---------------------------------------------------------------------------|


[Bridge]

e |---------------------------------------------------------------------------|
B |---------------------------------------------------------------------------|
F#|-12-12-12-12-12-9-9-9-9-9-7-7-7-7-7-5-5-5-5-5------------------------------|x1
B |-10-10-10-10-10-7-7-7-7-7-5-5-5-5-5-3-3-3-3-3------------------------------|
G |-11-11-11-11-11-8-8-8-8-8-6-6-4-6-6-4-4-4-4-4------------------------------|
D |-12-12-12-12-12-9-9-9-9-9-7-7-7-7-7-5-5-5-5-5------------------------------|


[Outro]

e |---------------------------------------------------------------------------|
B |---------------------------------------------------------------------------|
F#|---------------------------------------------------------------------------|x1
B |---------------------------------------------------------------------------|
G |-2--2--2-2-2-2-2-2-4--4--4-4-4-4-4-4/7-7-7-7\4-4-4-4-7-7-7-7\4-4-4-4-------|
D |-0--0--0-0-0-0-0-0-2--2--2-2-2-2-2-2/5-5-5-5\2-2-2-2/5-5-5-5\2-2-2-2-------|

e |---------------2--------------------------------2--------------------------|
B |------3---3--5---5--3---3---3---3------3---3--5---5--3---3---3-------------|
F#|-3--5---5-------------5---5---5---3--5---5-------------5---5---------------|
B |---------------------------------------------------------------------------|
G |---------------------------------------------------------------------------|
D |---------------------------------------------------------------------------|
                                                                               x1
e |---------------2-----------------------------------------------------------|
B |------3---3--5---5--3---3--------------------------------------------------|
F#|-3--5---5-------------5---5-3-5-3------------------------------------------|
B |---------------------------------------------------------------------------|
G |---------------------------------------------------------------------------|
D |---------------------------------------------------------------------------|


************************************

| /   Slide up
| \   Slide down
| *   Harmonic

************************************
Suggest correction
Give kudos to tab author, rate the tab!
1 2 3 4 5
comments
print report bad tab
guest
You may want to rate the tab now too:
select rating
Wanna post a correction for this tab? Suggest correction