Oops, an error
Loading. Please wait.

House Tab

43 views 9 this week
no commentswrite comment
1 2 3 4 5
3 more votes to show rating
add to favorites
launch autoscroll
font size
0
reset
how to read this tab
guitar tuner
Autoscroll
slow
fast
+/-
esc
set tempo
stop
Help us to improve Ultimate-Guitar.com Take our survey!
×
Author
Difficulty
[Intro]

e|--------------------------------|------------------------------|
B|---7---7---7---7---7---7---7----|------------------------------|
G|--------------------------------|---7---7---7---7---7---7---7--|
D|-5---5---5---5---5---5---5---5--|------------------------------|
A|--------------------------------|-5---5---5---5---5---5---5---5|
E|--------------------------------|------------------------------|
                                                                  x1
e|--------------------------------|-----------------------2-2----|
B|--------------------------------|-----------------------3-3----|
G|---4---4---4---4---4---4---4----|-4---4---4---4---4-----2-2----|
D|--------------------------------|-------------------0---0-0----|
A|--2--2---2---2---2---2---2---2--|-------------------0---0-0----|
E|--------------------------------|---2---2---1---0-------0-0----|


[Verse]

e|--------------------------------|------------------------------|
B|---7---7---7---7---7---7---7----|------------------------------|
G|--------------------------------|---7---7---7---7---7---7---7--|
D|-5---5---5---5---5---5---5---5--|------------------------------|
A|--------------------------------|-5---5---5---5---5---5---5---5|
E|--------------------------------|------------------------------|
                                                                  x5
e|--------------------------------|-----------------------2-2----|
B|--------------------------------|-----------------------3-3----|
G|---4---4---4---4---4---4---4----|-4---4---4---4---4-----2-2----|
D|--------------------------------|-------------------0---0-0----|
A|--2--2---2---2---2---2---2---2--|-------------------0---0-0----|
E|--------------------------------|---2---2---1---0-------0-0----|


[Chorus]

e|-14-14-14-14-14-14-14-9--9--9--9--9--9--9--4-4-4-4-7-7-7-7-2-2h3-2|
B|-15-15-15-15-15-15-15-10-10-10-10-10-10-10-5-5-5-5-8-8-8-8-3-3-3-3|
G|-14-14-14-14-14-14-14-9--9--9--9--9--9--9--4-4-4-4-7-7-7-7-2-2-2-2|x2
D|-12-12-12-12-12-12-12-7--7--7--7--7--7--7--2-2-2-2-5-5-5-5-0-0-0-0|
A|-12-12-12-12-12-12-12-7--7--7--7--7--7--7--2-2-2-2-5-5-5-5-0-0-0-0|
E|-12-12-12-12-12-12-12-7--7--7--7--7--7--7--2-2-2-2-5-5-5-5-0-0-0-0|


[Verse]

e|--------------------------------|------------------------------|
B|---7---7---7---7---7---7---7----|------------------------------|
G|--------------------------------|---7---7---7---7---7---7---7--|
D|-5---5---5---5---5---5---5---5--|------------------------------|
A|--------------------------------|-5---5---5---5---5---5---5---5|
E|--------------------------------|------------------------------|
                                                                  
e|--------------------------------|-----------------------2-2----|
B|--------------------------------|-----------------------3-3----|
G|---4---4---4---4---4---4---4----|-4---4---4---4---4-----2-2----|x3
D|--------------------------------|-------------------0---0-0----|
A|--2--2---2---2---2---2---2---2--|-------------------0---0-0----|
E|--------------------------------|---2---2---1---0-------0-0----|
With:
e|---------------------------------------------------------------|
B|---------------------------------------------------------------|
G|-9-7\------------9-7/------------9-7\--------------9-7/--------|
D|---------------------------------------------------------------|
A|-7-9\------------7-9/------------7-9\--------------7-9/--------|
E|---------------------------------------------------------------|


[Outro]

e|----17----17----17----17------|-------14----14----14----14----|
B|------------------------------|-------------------------------|
G|-16----16----16----16----16---|----14----14----14----14----14-|
D|------------------------------|-------------------------------|
A|------------------------------|-------------------------------|
E|------------------------------|-------------------------------|
                                                                 x2
e|----10----10----10----10----10|----14----14----14----14-------|
B|------------------------------|-------------------------------|
G|-12----12----12----12----12---|-12----12----12----12----12----| 
D|------------------------------|-------------------------------|
A|------------------------------|-------------------------------|
E|------------------------------|-------------------------------|

e|--------------------------------------------------------------|
B|--------------------------------------------------------------|
G|-9-7\------------9-7/------------9-7\--------------9-7/-------|x4
D|--------------------------------------------------------------|
A|-7-9\------------7-9/------------7-9\--------------7-9/-------|
E|--------------------------------------------------------------|


************************************

| /   Slide up
| \   Slide down

************************************
Suggest correction
Give kudos to tab author, rate the tab!
1 2 3 4 5
comments
print report bad tab
guest
You may want to rate the tab now too:
select rating
Wanna post a correction for this tab? Suggest correction