Oops, an error
Loading. Please wait.

Kute tab

by Alex G
706 views 3 this week
4 commentsread comments
1 2 3 4 5
1 last vote to show rating
add to favorites
×
Save as Personal and add changes to this tab that will be seen only by you. Learn more ›
×
You can save this tab as Personal to edit and correct it or add notes. All changes will be seen only by you. Learn more »
launch autoscroll
font size
0
reset
how to read this tab
guitar tuner
edit
Autoscroll
slow
fast
+/-
esc
set tempo
stop
[Intro]

I think you're kute
e|-----0-0-------------------------------------------------------------------|
B|-0-0-0-0-------------------------------------------------------------------|
G|-4-4-0-0-------------------------------------------------------------------| 
D|-2-2-2-2-------------------------------------------------------------------|
A|-3-3-2-2-------------------------------------------------------------------|
E|-----0-0-------------------------------------------------------------------|


[Verse]

I'll keep you in the cellar, Show you to the children, Kill me after dinner, 
You're alright 
e|-------------------------------------0-0-----------------------------------|
B|-0-0-0-0-0-0-0-0-0-0-0-0-0-0-0-0-0-0-0-0-----------------------------------|
G|-4-4-2-2-0-0-4-4-2-2-0-0-4-4-2-2-0-0-0-0-----------------------------------| 
D|-2-2-2-2-2-2-2-2-2-2-2-2-2-2-2-2-2-2-2-2-----------------------------------|
A|-3-3-0-0-3-3-3-3-0-0-3-3-3-3-0-0-3-3-2-2-----------------------------------|
E|-------------------------------------0-0-----------------------------------|

You look like someone i could bury in the garden, Cover you in diamonds 
e|---------------------------------------------------------------------------|
B|-0-0-0-0-0-0-0-0-0-0-0-0-0-0-0-0-0-0---------------------------------------|
G|-4-4-2-2-0-0-4-4-2-2-0-0-4-4-2-2-0-0---------------------------------------| 
D|-2-2-2-2-2-2-2-2-2-2-2-2-2-2-2-2-2-2---------------------------------------|
A|-3-3-0-0-3-3-3-3-0-0-3-3-3-3-0-0-3-3---------------------------------------|
E|---------------------------------------------------------------------------|


[Chorus]

And when i die and when i die and when i die, I'll dig you up 
e|-----0-0--0------0-0--0------0-0--0------0---------------------------------|
B|-0-0-3-3--3--0-0-3-3--3--0-0-3-3--3--0-0-0---------------------------------|
G|-4-4-2-2--2--4-4-2-2--2--4-4-2-2--2--4-4-0---------------------------------|
D|-2-2-0-0--0--2-2-0-0--0--2-2-0-0--0--2-2-2---------------------------------|
A|-3-3-0-0--0--3-3-0-0--0--3-3-0-0--0--3-3-2---------------------------------|
E|-----------------------------------------0---------------------------------|


[Verse]

I'll tear out all your feathers, Cook you in the oven, Burn myself 
e|-------------------------------------0-0-----------------------------------|
B|-0-0-0-0-0-0-0-0-0-0-0-0-0-0-0-0-0-0-0-0-----------------------------------|
G|-4-4-2-2-0-0-4-4-2-2-0-0-4-4-2-2-0-0-0-0-----------------------------------|
D|-2-2-2-2-2-2-2-2-2-2-2-2-2-2-2-2-2-2-2-2-----------------------------------|
A|-3-3-0-0-3-3-3-3-0-0-3-3-3-3-0-0-3-3-2-2-----------------------------------|
E|-------------------------------------0-0-----------------------------------|

What is mommy cookin, She looks like a baby
e|---------------------------------------------------------------------------|
B|-0-0-0-0-0-0-0-0-0-0-0-0-0-0-0-0-0-0---------------------------------------|
G|-4-4-2-2-0-0-4-4-2-2-0-0-4-4-2-2-0-0---------------------------------------| 
D|-2-2-2-2-2-2-2-2-2-2-2-2-2-2-2-2-2-2---------------------------------------|
A|-3-3-0-0-3-3-3-3-0-0-3-3-3-3-0-0-3-3---------------------------------------|
E|---------------------------------------------------------------------------|


[Chorus]

You love me, Do you love me, You wanna die 
e|-----0-0--0------0-0--0------0---------------------------------------------|
B|-0-0-3-3--3--0-0-3-3--3--0-0-0---------------------------------------------|
G|-4-4-2-2--2--4-4-2-2--2--4-4-0---------------------------------------------|
D|-2-2-0-0--0--2-2-0-0--0--2-2-2---------------------------------------------|
A|-3-3-0-0--0--3-3-0-0--0--3-3-2---------------------------------------------|
E|-----------------------------0---------------------------------------------|


[Verse]

You really wanna see us laughing at your body floating down the river, 
Baby you're pathetic 
e|---------------------------------------------------------------------------|
B|-0-0-0-0-0-0-0-0-0-0-0-0-0-0-0-0-0-0-0-0-0-0-0-0---------------------------|
G|-4-4-2-2-0-0-4-4-2-2-0-0-4-4-2-2-0-0-4-4-2-2-0-0---------------------------|
D|-2-2-2-2-2-2-2-2-2-2-2-2-2-2-2-2-2-2-2-2-2-2-2-2---------------------------|
A|-3-3-0-0-3-3-3-3-0-0-3-3-3-3-0-0-3-3-3-3-0-0-3-3---------------------------|
E|---------------------------------------------------------------------------|


[Outro]

You are god, You are god, You are god, You are god
e|-----0-0--0------0-0--0------0-0--0------0---------------------------------|
B|-0-0-0-0--0--0-0-0-0--0--0-0-3-3--3--0-0-3---------------------------------|
G|-4-4-0-0--0--4-4-0-0--0--4-4-2-2--2--4-4-2---------------------------------|
D|-2-2-2-2--2--2-2-2-2--2--2-2-0-0--0--2-2-0---------------------------------|
A|-3-3-2-2--2--3-3-2-2--2--3-3-0-0--0--3-3-0---------------------------------|
E|-----0-0--0------0-0--0----------------------------------------------------|

            
            
Suggest correction
Creating personal tab
Creating personal tab
You can edit any tab online and save it as your Personal.

You can edit, replace or remove any tab part or add personal notes – all changes will be seen only by you.

Personal tabs can be accessed anytime from any device, even offline.
Learn more »
Give kudos to tab author, rate the tab!
1 2 3 4 5
comments
print report bad tab
4 comments total. Showing first comments.
0 reply
forcraigslistlogan 10 Jul 13, 2016 08:41 AM

almost right...
e|-
B|-0
G|-4
D|-2
A|-0

Should be..
e|-
B|-0
G|-4
D|-2
A|-0

in the verse

0 reply
forcraigslistlogan 10 Jul 13, 2016 08:48 AM

meant to say D and G on 2 and the rest open...

guest
You may want to rate the tab now too:
select rating
Wanna post a correction for this tab? Suggest correction