Oops, an error
Loading. Please wait.

Mis Acoustic tab

by Alex G
1,162 views 9 this week
no commentswrite comment
1 2 3 4 5
x 3
add to favorites
×
Save as Personal and add changes to this tab that will be seen only by you. Learn more ›
×
You can save this tab as Personal to edit and correct it or add notes. All changes will be seen only by you. Learn more »
launch autoscroll
font size
0
reset
how to read this tab
guitar tuner
edit
Autoscroll
slow
fast
+/-
esc
set tempo
stop
Author
Difficulty
ALEX G - MIS
from RULES

tabbed by: dreya
tuning: standard

might not be perfect lol, went off a live vid but theres 2 guitars so i took a lil liberty
in some spots to make it sound nice


[Verse 1]

e|--1-1----------------------------------------------------------------------|
B|--3-3--1-1-------1-1-1-1--1-1--1-1-1-1--1-1-1-3-0---------1-----0-1-1------|
G|--2-2-------1-1--2-2-2-2-------2-2-2-2--2----------1-1-1--2-2-2-----2-0-0--|
D|-------2-2--2-2--3-3-3-3--2-2--3-3-3-3--2----------2---2--3---------3---3--|
A|-------3----2-2--3-3-3-3--3-3--3-3-3-3-------------2---2--3---------3---3--|
E|---------------------------------------------------------------------------|

e|--------------------------------------------------------------------|
B|--1-0-------1-------1-1-1-1-----------------------------------------|
G|--2---2-0---------0-2-2-2-2-----------------------------------------|
D|--3-------2-2-2-3---3-3-3-3-----------------------------------------|
A|--3---------3-------3-3-3-3-----------------------------------------|
E|--------------------------------------------------------------------|


[Pre-Chorus]

('iii miiisss yoouu soooo baaddd'):

e|------------1-1-1-1------------------------------------------------------|
B|--1-3-------3-3-3-3--1-1-1-1---------------------------------------------|
G|--2-2--1-1--2-2-2-2--2-2-2-2---------------------------------------------|
D|--2-2--2-2-----------3-3-3-3---------------------------------------------|
A|-------2-2-----------3-3-3-3---------------------------------------------|
E|-------------------------------------------------------------------------|


[Chorus] (x2)

(dont (or do) play that last 0-0-2-3 run in the 2nd part the 2nd time, jus play the one in the first part
its not precise though just jam and add stuff in if you want)

e|------------------------------------------------------------------|
B|------------------------------------------------------------------|
G|------------------------------------------------------------------|
D|------2-----2------2-----0------0-----0---------------------------|
A|----3---3--------3---3--------3---3-------------------------------|
E|--1-------1----0-------0----3-------3-----------------------------|

e|------------------------------------------------------------------|
B|------------------------------------------------------------------|
G|---------------------0--------------------------------------------|
D|------2-----2------2-----0------0-0-2-----------------------------|
A|----3---3--------3------------3-------3---------------------------|
E|--1-------1----0-------0----3-------------------------------------|


[Verse 2]

alex usually just plays the chords w/o the runs in this verse live but since theres usually
2 guitars u can add the runs from the first verse in if u want

e|--1-1-----------------------------------------------------------------------------------|
B|--3-3--1-1-------1-1-1-1--1-1--1-1-1-1--1-1-------1-1-1-1-1-1--1-1--1-1-1-1-------------|
G|--2-2-------1-1--2-2-2-2-------2-2-2-2--2-2--1-1--2-2-2-2-2-2-------2-2-2-2-------------|
D|-------2-2--2-2--3-3-3-3--2-2--3-3-3-3--2-2--2-2--3-3-3-3-3-3--2-2--3-3-3-3-------------|
A|-------3----2-2--3-3-3-3--3-3--3-3-3-3-------2-2--3-3-3-3-3-3--3-3--3-3-3-3-------------|
E|----------------------------------------------------------------------------------------|


[Pre-Chorus]

e|------------1-1-1-1----------------------------------------------------|
B|--1-1-------3-3-3-3--1-1-1-1-------------------------------------------|
G|--2-2--1-1--2-2-2-2--2-2-2-2-------------------------------------------|
D|--2-2--2-2-----------3-3-3-3-------------------------------------------|
A|-------2-2-----------3-3-3-3-------------------------------------------|
E|-----------------------------------------------------------------------|


[Chorus] (x2)

e|----------------------------------------------------------------|
B|----------------------------------------------------------------|
G|----------------------------------------------------------------|
D|------2-----2------2-----0------0-----0-------------------------|
A|----3---3--------3---3--------3---3-----------------------------|
E|--1-------1----0-------0----3-------3---------------------------|

e|----------------------------------------------------------------|
B|----------------------------------------------------------------|
G|-------------------------0--------------------------------------|
D|------2-----2------2------------0-----0-------------------------|
A|----3---3--------3---3--------3---3-----------------------------|
E|--1-------1----0-------0----3-------3---------------------------|


Lyrics:


[Verse 1]

my baby's alright 
she just doesn't wanna see me tonight 
not for a minute 
not for a second 
she says 'nothin here for you to make right' 


[Chorus]

i said 'i miss you so bad' 
she says 


[Verse 2]

i guess i dont need her around 
i just do what i do best when im down 
paint the problem 
into a picture 
twist my arm til i make a sound 


[Chorus]

i said 'i miss you so bad' 
she says
Suggest correction
Creating personal tab
Creating personal tab
You can edit any tab online and save it as your Personal.

You can edit, replace or remove any tab part or add personal notes – all changes will be seen only by you.

Personal tabs can be accessed anytime from any device, even offline.
Learn more »
Give kudos to tab author, rate the tab!
1 2 3 4 5
comments
print report bad tab
guest
You may want to rate the tab now too:
select rating
Wanna post a correction for this tab? Suggest correction