Oops, an error
Loading. Please wait.

Mis chords

version 2
version 2

Whole song

  • Easy to read since i've put chords on everything, including the chorus riff.
by Alex G
88 views 1 this week
no commentswrite comment
1 2 3 4 5
3 more votes to show rating
add to favorites
×
Save as Personal and add changes to this tab that will be seen only by you. Learn more ›
×
You can save this tab as Personal to edit and correct it or add notes. All changes will be seen only by you. Learn more »
launch autoscroll
font size
0
reset
transpose
0
reset
simplify chords
display chords
guitar tuner
edit
Autoscroll
slow
fast
+/-
esc
set tempo
stop
About this tab version
Easy to read since i've put chords on everything, including the chorus riff. Was this info helpful? Yes No
Strumming
There is no strumming pattern for this song yet. and get +5 IQ
Live version performed by Alex G at Rough Trade NYC, 10/9/15 - http://www.youtube.com/watch?v=OKuS7tYvJG4
Credits for tab portion: dreya (previously added by aaron5436)
F/C: x33210
[Intro]
Dm  C  E  F/C
F/C  C  F/C
Am  E  F/C
F/C  C  F/C

[Verse 1]
Dm        C Am       E     F/C
   My     baby’s   alright
                       C        F/C
She just doesnt wanna see me tonight
Am           E
   Not for a minute
F/C
   Not for a second
                          C              F/C
She says 'nothin here for you to make right'
        Am     E      Dm    F/C
I said 'I miss you so    bad'
N.C
She says

[Chorus]
F  Em  C  Em (x3)
e|------------------------------------------------------------------|
B|------------------------------------------------------------------|
G|------------------------------------------------------------------|
D|------2-----2------2-----0------0-----0---------------------------|
A|----3---3--------3---3--------3---3-------------------------------|
E|--1-------1----0-------0----3-------3-----------------------------|

e|------------------------------------------------------------------|
B|------------------------------------------------------------------|
G|---------------------0--------------------------------------------|
D|------2-----2------2-----0------0-0-2-----------------------------|
A|----3---3--------3------------3-------3---------------------------|
E|--1-------1----0-------0----3-------------------------------------|

[Verse 2]
Dm     C Am         E         F/C
I      guess I dont need her around
                    C             F/C
I just do what I do best when I'm down
Am           E
   Paint the problem
F/C
   Into a picture
                 C        F/C
Twist my arm til I make a sound
        Am     E             Dm     F/C
I said 'I miss you so   bad'
N.C
She says

            
            
Suggest correction
Creating personal tab
Creating personal tab
You can edit any tab online and save it as your Personal.

You can edit, replace or remove any tab part or add personal notes – all changes will be seen only by you.

Personal tabs can be accessed anytime from any device, even offline.
Learn more »
Give kudos to tab author, rate the tab!
1 2 3 4 5
comments
print report bad tab
guest
You may want to rate the tab now too:
select rating
Wanna post a correction for this tab? Suggest correction