Oops, an error
Loading. Please wait.

Powerful Man tab

version 1
version 1

Whole song

by Alex G
2,495 views 78 this week
4 commentsread comments
1 2 3 4 5
x 6
add to favorites
×
Save as Personal and add changes to this tab that will be seen only by you. Learn more ›
×
You can save this tab as Personal to edit and correct it or add notes. All changes will be seen only by you. Learn more »
launch autoscroll
font size
0
reset
how to read this tab
guitar tuner
edit
Autoscroll
slow
fast
+/-
esc
set tempo
stop
Only partially capoed from A to E hi , leave the low E open, tabbed relative to this

[Intro]
e|---------------------------------------------------------------------------------------------------|
B|-----------------------0-------------------------------------------------0-------------------------|
G|---------------------------2-------------------------------------------------2---------------------|(x2)
D|---------0---------0-----------0---------------0-----------0---------0-----------0---------------0-|
A|-----2-------0h2-------------------0-------0-----------2-------0h2-------------------0-------0-----|
E|-5-------------------------------------0-----------5-------------------------------------0---------|

[Verse]
e|---------------------------------------------------------------------------------------------------|
B|-----------------------0-------------------------------------------------0-------------------------|
G|---------------------------2-------------------------------------------------2---------------------|(x6)
D|---------0---------0-----------0---------------0-----------0---------0-----------0---------------0-|
A|-----2-------0h2-------------------0-------0-----------2-------0h2-------------------0-------0-----|
E|-5-------------------------------------0-----------5-------------------------------------0---------|

[Chorus]
e|-----0-------0-------0-------0---------------------------------------------------------------------|
B|-----2-------2-------2-------2---------------------------------------------------------------------|
G|-----2-------2-------2-------2---------------------------------------------------------------------|
D|-----2-------2-------2-------2---------------------------------------------------------------------|
A|-0-------0-------0-------0-------------------------------------------------------------------------|
E|---------------------------------------------------------------------------------------------------|

[Verse]
e|---------------------------------------------------------------------------------------------------|
B|-----------------------0-------------------------------------------------0-------------------------|
G|---------------------------2-------------------------------------------------2---------------------|(x6)
D|---------0---------0-----------0---------------0-----------0---------0-----------0---------------0-|
A|-----2-------0h2-------------------0-------0-----------2-------0h2-------------------0-------0-----|
E|-5-------------------------------------0-----------5-------------------------------------0---------|

[Chorus]
e|-----0-------0-------0-------0---------------------------------------------------------------------|
B|-----2-------2-------2-------2---------------------------------------------------------------------|
G|-----2-------2-------2-------2---------------------------------------------------------------------|
D|-----2-------2-------2-------2---------------------------------------------------------------------|
A|-0-------0-------0-------0-------------------------------------------------------------------------|
E|---------------------------------------------------------------------------------------------------|

[Verse]
e|---------------------------------------------------------------------------------------------------|
B|-----------------------0-------------------------------------------------0-------------------------|
G|---------------------------2-------------------------------------------------2---------------------|(x6)
D|---------0---------0-----------0---------------0-----------0---------0-----------0---------------0-|
A|-----2-------0h2-------------------0-------0-----------2-------0h2-------------------0-------0-----|
E|-5-------------------------------------0-----------5-------------------------------------0---------|

[Outro]
e|-----0-------0-------0-------0---------------------------------------------------------------------|
B|-----2-------2-------2-------2-------3-------3-------3-------3-------------------------------------|
G|-----2-------2-------2-------2-------0-------0-------0-------0-------------------------------------|(x30)
D|-----2-------2-------2-------2-------0-------0-------0-------0-------------------------------------|
A|-0-------0-------0-------0-----------2-------2-------2-------2-------------------------------------|
E|---------------------------------5-------5-------5-------5-----------------------------------------|


************************************

| h   Hammer-on

************************************

            
            
Suggest correction
Creating personal tab
Creating personal tab
You can edit any tab online and save it as your Personal.

You can edit, replace or remove any tab part or add personal notes – all changes will be seen only by you.

Personal tabs can be accessed anytime from any device, even offline.
Learn more »
comments
print report bad tab
4 comments total. Showing first comments.
+1 reply
regicksts 25 May 26, 2017 04:08 PM, edited on June 2 2017, 12:21 am

thnk u for you service

+1 reply
ccurtisi 59 Jun 30, 2017 11:11 AM

Thank you!!

0 reply
bishmob 10 Sep 09, 2017 07:19 PM

thanks!!!

guest
You may want to rate the tab now too:
select rating
Wanna post a correction for this tab? Suggest correction