Oops, an error
Loading. Please wait.

Proud chords

by Alex G
5,077 views 168 this week
1 commentread comment
1 2 3 4 5
x 10
add to favorites
×
Save as Personal and add changes to this tab that will be seen only by you. Learn more ›
×
You can save this tab as Personal to edit and correct it or add notes. All changes will be seen only by you. Learn more »
launch autoscroll
font size
0
reset
transpose
0
reset
simplify chords
display chords
guitar tuner
edit
Autoscroll
slow
fast
+/-
esc
set tempo
stop
Author
Difficulty
Strumming
There is no strumming pattern for this song yet. and get +5 IQ
Alex G
"Proud"
From the album "Rocket" (2017)

Standard Tuning
Tempo = 135 bpm


[Intro]
   G             Em7          D               A       Asus4
e|-------------|------------|---------------|--------------|
B|----3--------|----3----3--|----3----3-3-3-|----2-2--3----|
G|----0--------|----0----0--|----2----2-2-2-|----2-2--2----|
D|----0--------|----2----2--|-0--0--0-0-0-0-|----2-2--2----|
A|----2--------|----2----2--|---------------|-0--0-0--0----|
E|-3--3--3--2--|-0--0----0--|---------------|--------------|

   G             Em7          D               Cadd9
e|-------------|------------|---------------|-------------|
B|----3--------|----3----3--|----3----3-3-3-|----3-3--3---|
G|----0--------|----0----0--|----2----2-2-2-|----0-0--0---|
D|----0--------|----2----2--|-0--0--0-0-0-0-|----2-2--2---|
A|----2--------|----2----2--|---------------|-3--3-3--3---|
E|-3--3--3--2--|-0--0----0--|---------------|-------------|


[Verse 1]
G      Em7          D
I'm so proud of you
         A              Asus4
And everything that you do
G              Em7           D
Doesn't matter what they say
                   Cadd9
They ain't worth a dollar in change
G               Em7             D
Wish I could be strong like you
           A                  Asus4
Wish I had something to prove
G          Em7           D
Wanna be a star like you
           Cadd9            A
Wanna make something that's true


[Chorus]
C    G
If I sink
A
I don't wanna be the one 
   A
to leave my baby out without 
   C         G     D  A  A
no bottle to drink
C    G
If I sink
A
I don't wanna be the one 
   A
to leave my baby down without 
   C            G    D  A
no money in her bank


[Instrumental]
   G             Em7          D               A       Asus4
e|-------------|------------|---------------|--------------|
B|----3--------|----3----3--|----3----3-3-3-|----2-2--3----|
G|----0--------|----0----0--|----2----2-2-2-|----2-2--2----|
D|----0--------|----2----2--|-0--0--0-0-0-0-|----2-2--2----|
A|----2--------|----2----2--|---------------|-0--0-0--0----|
E|-3--3--3--2--|-0--0----0--|---------------|--------------|

   G             Em7          D               C
e|-------------|------------|---------------|-------------|
B|----3--------|----3----3--|----3----3-3-3-|----1-1--1---|
G|----0--------|----0----0--|----2----2-2-2-|----0-0--0---|
D|----0--------|----2----2--|-0--0--0-0-0-0-|----2-2--2---|
A|----2--------|----2----2--|---------------|-3--3-3--3---|
E|-3--3--3--2--|-0--0----0--|---------------|-------------|


[Verse 2]
G            Em7           D
I wanna be a fake like you
                 A           Asus4
Walk around with rocks in my shoes
G            Em7           D
I just wanna play the game
        Cadd9
Big and fat and insane
G      Em7          D
I'm so proud of you
         A              Asus4
And everything that you do
G              Em7         D
Doesn't matter what I said
    Cadd9      A
I'm better off dead


[Chorus]
C    G
If I sink
A
I don't wanna be the one 
   A
to leave my baby out without 
   C         G     D  A  A
no bottle to drink
C    G
If I sink
A
I don't wanna be the one 
   A
to leave my baby down without 
   C            G    D  A
no money in her bank


[Instrumental Chords]
   E          Bm7        F#m7       D   Dsus2
e|----------|----------|----------|-2---0---|
B|-0--------|-0--------|-0--------|-3---3---|
G|-1--------|-2--------|-2--------|-2---2---|
D|-2--------|-0--------|-2--------|-0---0---|
A|-2--------|-2--------|-0--------|---------|
E|-0--------|----------|-2--------|---------|

   A          Cadd9      D          D   G
e|----------|----------|-2--------|-2---3----|
B|-2--------|-3--------|-3--------|-3---3----|
G|-2--------|-0--------|-2--------|-2---0----|
D|-2--------|-2--------|-0--------|-0---0----|
A|-0--------|-3--------|----------|-----2----|
E|----------|----------|----------|-----3----|

   G             Em7          D               A       Asus4
e|-------------|------------|---------------|--------------|
B|----3--------|----3----3--|----3----3-3-3-|----2-2--3----|
G|----0--------|----0----0--|----2----2-2-2-|----2-2--2----|
D|----0--------|----2----2--|-0--0--0-0-0-0-|----2-2--2----|
A|----2--------|----2----2--|---------------|-0--0-0--0----|
E|-3--3--3--2--|-0--0----0--|---------------|--------------|

   G             Em7          D               Cadd9         A
e|-------------|------------|---------------|-------------|-----|
B|----3--------|----3----3--|----3----3-3-3-|----3-3--3---|-2---|
G|----0--------|----0----0--|----2----2-2-2-|----0-0--0---|-2---|
D|----0--------|----2----2--|-0--0--0-0-0-0-|----2-2--2---|-2---|
A|----2--------|----2----2--|---------------|-3--3-3--3---|-0---|
E|-3--3--3--2--|-0--0----0--|---------------|-------------|-----|


[Final Chorus]
C    G
If I sink
A
I don't wanna be the one 
   A
to leave my baby out without 
   C         G     D  A  A
no bottle to drink
C    G
If I fuck up
A
Oooh...


[Outro]
C | G | A | A |
C | G | A | A |
E | Bm7 | F#m7 | D Dsus2 |
A | Cadd9 | D  | D G |

            
            
Suggest correction
Creating personal tab
Creating personal tab
You can edit any tab online and save it as your Personal.

You can edit, replace or remove any tab part or add personal notes – all changes will be seen only by you.

Personal tabs can be accessed anytime from any device, even offline.
Learn more »
comments
print report bad tab
1 comment total.
+1 reply
matlecoz19 10 Jun 09, 2017 03:36 AM

great job! thx!

guest
You may want to rate the tab now too:
select rating
Wanna post a correction for this tab? Suggest correction