Oops, an error
Loading. Please wait.

Rejoyce Tab

85 views 1 this week
no commentswrite comment
1 2 3 4 5
3 more votes to show rating
add to favorites
launch autoscroll
font size
0
reset
how to read this tab
guitar tuner
Autoscroll
slow
fast
+/-
esc
set tempo
stop
Help us to improve Ultimate-Guitar.com Take our survey!
×
Author
Difficulty
intermediate
[Intro/Verse]

e|----------------------------------------------------------------------|
B|----------------------------------------------------------------------|
G|--8/11--11-11-6-6-8-8-4-x-4-------------------------------------------|
D|-6-/9---9--9--4-4-6-6-2-x-2-------------------------------------------|
A|-6-/9---9--9--4-4-6-6-2-x-2-------------------------------------------|
E|----------------------------------------------------------------------|
                                                                         x4
e|-2-2-2-2-2-2-2-0-2-2--------------------------------------------------|
B|-2-2-2-2-2-2-2-0-0-0--------------------------------------------------|
G|-3-3-3-3-3-3-3-3-3-3--------------------------------------------------|
D|-4-4-4-4-4-4-4-4-4-4--------------------------------------------------|
A|-4-4-4-4-4-4-4-4-4-4--------------------------------------------------|
E|-2-2-2-2-2-2-2-2-2-2--------------------------------------------------|
  Play the base note with your thumb

[Bridge]

e|----------------------------------------------------------------------|
B|---------2-----2----4-------------------------------------------------|
G|-----3------3-------------------6-------------------------------------|
D|----------------------------8-------8---------------------------------|
A|-2----------------------6---------------7-----------------------------|
E|----------------------------------------------------------------------|
With:                                                                         x2
e|----------------------------------------------------------------------|
B|----------------------14----16----------------------------------------|
G|-------15---16---15-------------------15---16--15---------------------|
D|-16------------------------------16-----------------16----------------|
A|----------------------------------------------------------------------|
E|----------------------------------------------------------------------|
Then:
e|-------------------------2--------------------------------------------|
B|---------2-----2-----4-------4---2------2-------2---------------------|
G|-----3------3------------------------4------4-------------------------|
D|----------------------------------------------------------------------|
A|-2--------------------------------------------------------------------|
E|----------------------------------------------------------------------|
With:                     \--repeat till chorus---/                      x3
e|----------------------------------------------------------------------|
B|----------------------14----16----------------------------------------|
G|-------15---16---15-------------------15---16--15---------------------|
D|-16------------------------------16-----------------16----------------|
A|----------------------------------------------------------------------|
E|----------------------------------------------------------------------|


[Chorus]

e|-4--4-4--2--2-2-------------------------------------------------------|
B|-4--4-4--0--0-0--4-------4-------4------------------------------------|
G|-4--4-4--3--3-3--4--4-4--4--4-4--4--4---------------------------------|
D|-6--6-6--4--4-4--2--4-4--2--4-4--2--4---------------------------------|
A|-6--6-6--4--4-4--2--2-2--2--2-2--2--2---------------------------------|
E|-4--4-4--0--0-0-------------------------------------------------------|
                                                                         x2
e|----------------------------------------------------------------------|
B|----------------------------------------------------------------------|
G|-16---15---13---11-9--------------------------------------------------|
D|---------------------13h14---14-------------14-------------14---------|
A|----------------------------------13---13--------13---13--------13----|
E|----------------------------------------------------------------------|


[Bridge]

e|----------------------------------------------------------------------|
B|----------------------------------------------------------------------|
G|----------------------------------------------------------------------|x1
D|----1-1-1---------1-1--------1-1--------------------------------------|
A|-2--------2-2----2-2-2-2-2--2-2-2-2-2---------------------------------|
E|-2----------0----------2-0--------2-0---------------------------------|


[Outro]

e|----------------------------------------------------------------------|
B|----------------------------------------------------------------------|
G|--8/11--11-11-6-6-8-8-4--4--------------------------------------------|x4
D|-6-/9---9--9--4-4-6-6-2--2--------------------------------------------|
A|----------------------------------------------------------------------|
E|----------------------------------------------------------------------|
         Ends on cool Electronic feedback thing which i love

************************************

| x   Dead note
| h   Hammer-on
| /   Slide up

************************************
Suggest correction
Give kudos to tab author, rate the tab!
1 2 3 4 5
comments
print report bad tab
guest
You may want to rate the tab now too:
select rating
Wanna post a correction for this tab? Suggest correction