Oops, an error
Loading. Please wait.

Serpent Is Lord Tab

121 views 1 this week
no commentswrite comment
1 2 3 4 5
3 more votes to show rating
add to favorites
launch autoscroll
font size
0
reset
how to read this tab
guitar tuner
Autoscroll
slow
fast
+/-
esc
set tempo
stop
Help us to improve Ultimate-Guitar.com Take our survey!
×
Author
Difficulty
Tuning
intermediate
D A D G B E
[Intro]

e |---------------------------------------------------------------------------|
B |---------------------------------------------------------------------------|
G |-------6-----------9------------2--------2--x--4p0-------------------------|x2
C#|----8----8-----12-----12-----5---------------------------------------------|
A |-5----------9-------------2--------0---------------------------------------|
D |--------------------------------------0------------------------------------|
                             \-----------------------/ Repeat this half x4

e |---------------------------------------------------------------------------|
B |---------------------------------------------------------------------------|
G |---------------5*----------------------------------------------------------|x1
C#|-------1----1--------------------------------------------------------------|
A |----4----4-----------------------------------------------------------------|
D |-4----4--------------------------------------------------------------------|


[Verse]

e |---------------------------------------------------------------------------|
B |---------------------------------------------------------------------------|
G |-------2-2---------2-2---------2-2--------2-2---------2-2---------2-2------|x10
C#|---------------------------------------------------------------------------|
A |----0-0---0-0---0-0---0-0---0-0--0-0---0-0---0-0---0-0---0-0---0-0---0-0---|
D |-4-4---------4-4---------4-4--------0-0---------0-0---------0-0------------|
                                                                               
e |---------------------------------------------------------------------------|
B |---9--9--9--9--9--9----5-5-5-5-5-5-5---------------------------------------|
G |-11-11-11-11-11-11-11\7-7-7-7-7-7-7-7/-------------------------------------|x4
C#|---------------------------------------------------------------------------|
A |---------------------------------------------------------------------------|
D |---------------------------------------------------------------------------|


[Chorus]

e |---------------------------------------------------------------------------|
B |---------------------------------------------------------------------------|
G |-------6-----------9------------2--------2--x--4p0-------------------------|x3
C#|----8----8-----12-----12-----5---------------------------------------------|
A |-5----------9-------------2--------0---------------------------------------|
D |--------------------------------------0------------------------------------|
                             \----------------------/ Repeat this half x4

e |---------------------------------------------------------------------------|
B |---------------------------------------------------------------------------|
G |-------6-----------9------------2--------2--x--2---------------------------|x2
C#|----8----8-----12-----12-----5---------------------------------------------|
A |-5----------9-------------2--------0---------------------------------------|
D |--------------------------------------0------------------------------------|
                             \---------------------/ Repeat this half x4

[Verse]

e |---------------------------------------------------------------------------|
B |---------------------------------------------------------------------------|
G |---------------------------------------------------------------------------|x3
C#|-------3-----------3-----------3-----------0-----------0-----------0-------|
A |----0-----0-----0-----0-----0-----0-----0-----0-----0-----0-----0-----0----|
D |-4-----------4-----------4-----------0-----------0-----------0-------------|
                                                                             
e |---------------------------------------------------------------------------|
B |---------------------------------------------------------------------------|
G |--9~~~~~~~~~~~~~~~~~~~~~~~~~~~~~~~~~~~~~~~~~~~~~~~~~~~~~~~~~~~~~~~~~~~~~~~~|x3
C#|-8-5~~~~~~~~~~~~~~~~~~~~~~~~~~~~~~~~~~~~~~~~~~~~~~~~~~~~~~~~~~~~~~~~~~~~~~~|
A |---------------------------------------------------------------------------|
D |---------------------------------------------------------------------------|


[Bridge]

e |---------------------------------------------------------------------------|
B |---------------------------------------------------------------------------|
G |-------2-2---------2-2---------2-2--------2-2---------2-2---------2-2------|
C#|---------------------------------------------------------------------------|
A |----0-0---0-0---0-0---0-0---0-0--0-0---0-0---0-0---0-0---0-0---0-0---0-0---|
D |-4-4---------4-4---------4-4--------0-0---------0-0---------0-0------------|
                                                                               x10
e |---------------------------------------------------------------------------|
B |-12b~~~~\10/12b~~~~\10/12b~~~~\10/14b~~~~~~~~------------------------------|
G |---------------------------------------------------------------------------|
C#|-10b~~~~\8-/10b~~~~\8-/10b~~~~\8-/12b~~~~~~~~------------------------------|
A |---------------------------------------------------------------------------|
D |---------------------------------------------------------------------------|


[Outro]

e |---------------------------------------------------------------------------|
B |---------------------------------------------------------------------------|
G |---------------------------------------------------------------------------|x10
C#|-------3-----------3-----------3-----------3-----------3-----------3-------|
A |----0-----0-----0-----0-----0-----0-----0-----0-----0-----0-----0-----0----|
D |-4-----------4-----------4-----------0-----------0-----------0-------------|


************************************

| x   Dead note
| g   Grace note
| (n) Ghost note
| h   Hammer-on
| p   Pull-off
| r   Release
| >   Accented note
| t   Tapping
| b   Bend
| br  Bend release
| pb  Pre-bend
| pbr Pre-bend release
| /   Slide up
| \   Slide down
| ~   Vibrato
| s   Slap
| P   Pop
| PM  Palm mute
| TR  Trill
| N   Tremolo

************************************
Suggest correction
Give kudos to tab author, rate the tab!
1 2 3 4 5
comments
print report bad tab
guest
You may want to rate the tab now too:
select rating
Wanna post a correction for this tab? Suggest correction