Oops, an error
Loading. Please wait.

Skipper Tab

115 views 6 this week
no commentswrite comment
1 2 3 4 5
3 more votes to show rating
add to favorites
launch autoscroll
font size
0
reset
how to read this tab
guitar tuner
Autoscroll
slow
fast
+/-
esc
set tempo
stop
Help us to improve Ultimate-Guitar.com Take our survey!
×
Author
Difficulty
Tuning
novice
D G D G B D
[Intro]

D#|-2/4-4-4-5p4-4-2-2-2-2-0-4-0-----------------------------------------------|
A#|---------------------------------------------------------------------------|
F |---------------------------------------------------------------------------|
D#|---------------------------------------------------------------------------|
G |---------------------------------------------------------------------------|
D#|---------------------------------------------------------------------------|
                                                                               x5
D#|---------------------------------------------------------------------------|
A#|----5-5/7-7/9-9/10\9--9-9-9-9/12-12-12-12-12\7-7-7-7\5---------------------|
F |----5-5/7-7/9-9/10\9--9-9-9-9/12-12-12-12-12\7-7-7-7\5---------------------|
D#|--0------------------------------------------------------------------------|
G |---------------------------------------------------------------------------|
D#|-0-------------------------------------------------------------------------|


[Verse]

D#|-0-4-4-4-4-4-4-4-4-4-4-0-4-4-4-4-4-4-4-4-----------------------------------|
A#|--5-5-5-5-5-5-5-5-5-5-5-5-5-5-5-5-5-5-5-5----------------------------------|
F |---------------------------------------------------------------------------|
D#|---------------------------------------------------------------------------|
G |---------------------------------------------------------------------------|
D#|---------------------------------------------------------------------------|
                                                                               x4
D#|---------------------------------------------------------------------------|
A#|-10b-10-10-9--9-\5--5-5/7\4--4-4-4/7/9\2-----------------------------------|
F |-10b-10-10-10-10\5--5-5/7\4--4-4-4/7/9\2-----------------------------------|
D#|---------------------------------------------------------------------------|
G |---------------------------------------------------------------------------|
D#|---------------------------------------------------------------------------|


[Outro]

D#|-2/4-4-4-5p4-4-2-2-2-2-0-4-0-----------------------------------------------|
A#|---------------------------------------------------------------------------|
F |---------------------------------------------------------------------------|
D#|---------------------------------------------------------------------------|
G |---------------------------------------------------------------------------|
D#|---------------------------------------------------------------------------|
                                                                               x5
D#|---------------------------------------------------------------------------|
A#|----5-5/7-7/9-9/10\9--9-9-9-9/12-12-12-12-12\7-7-7-7\5---------------------|
F |----5-5/7-7/9-9/10\9--9-9-9-9/12-12-12-12-12\7-7-7-7\5---------------------|
D#|--0------------------------------------------------------------------------|
G |---------------------------------------------------------------------------|
D#|-0-------------------------------------------------------------------------|


************************************

| p   Pull-off
| b   Bend
| /   Slide up
| \   Slide down

************************************
Suggest correction
Give kudos to tab author, rate the tab!
1 2 3 4 5
comments
print report bad tab
guest
You may want to rate the tab now too:
select rating
Wanna post a correction for this tab? Suggest correction