Oops, an error
Loading. Please wait.

Snot Tab

262 views 1 this week
no commentswrite comment
1 2 3 4 5
2 more votes to show rating
add to favorites
launch autoscroll
font size
0
reset
how to read this tab
guitar tuner
Autoscroll
slow
fast
+/-
esc
set tempo
stop
Help us to improve Ultimate-Guitar.com Take our survey!
×
Author
Difficulty
Tuning
intermediate
D A D F# A D
[Intro]

e |---------------------------------------------------------------------------|
B |-0-0-0-0-0-0-0-0-0-0-0-0-0-0-0-0-0-0-0-0-----------------------------------|
F#|-3-3-3-3-3/7-7-7-7-7-7-7-7-7-7/9-9-9-9-9-----------------------------------| x6
D |-0-0-0-0-0-0-0-0-0-0-0-0-0-0-0-0-0-0-0-0-----------------------------------|
A |-5-5-5-5-5/9-9-9-9-9-7-7-7-7-7/9-9-9-9-9-----------------------------------|
D |-5-5-5-5-5/9-9-9-9-9-7-7-7-7-7/9-9-9-9-9-----------------------------------|
With:
e |---------------------------------------------------------------------------|
B |-----10----10----10----10----10--10-12-12p10--10---------------------------|
F#|---12----12----12----12----12---------------12-----------------------------| x4
D |-14----14----14----14----14------------------------------------------------|
A |---------------------------------------------------------------------------|
D |---------------------------------------------------------------------------|
Then:
e |---------------------------------------------------------------------------|
B |-----15----15----15----15----15--15-17-17p15--15---------------------------|
F#|---17----17----17----17----17---------------17-----------------------------| x2
D |-19----19----19----19----19------------------------------------------------|
A |---------------------------------------------------------------------------|
D |---------------------------------------------------------------------------|


[Verse]

e |---------------------------------------------------------------------------|
B |---------------------------------------------------------------------------|
F#|---------------------------------------------------------------------------| 
D |-0--0--0-0-0-0-0-0-0-0--0--0-0-2-2-2-2-2-----------------------------------|
A |-2--2--2-2/5-5-5-5-5-0--0--0-0-0-0-0-0-0-----------------------------------|
D |-2--2--2-2/5-5-5-5-5-0--0--0-0-0-0-0-0-0-----------------------------------|
                                                                                x5
e |-7-7-7-7--5-5-2-5--2-2-0--0-0-0--------------------------------------------|
B |-5-5-5-5--3-3-3-3--3-3-3--2-2-0--------------------------------------------|
F#|-5-5-5-5--3-3-3-3--3-3-3--0-0-0--------------------------------------------| 
D |---------------------------------------------------------------------------|
A |---------------------------------------------------------------------------|
D |---------------------------------------------------------------------------|


[Chorus]

e |---------------------------------------------------------------------------|
B |-0-0-0-0-0-0-0-0-0-0-0-0-0-0-0-0-0-0-0-0-----------------------------------|
F#|-3-3-3-3-3/7-7-7-7-7-7-7-7-7-7/9-9-9-9-9-----------------------------------| x4
D |-0-0-0-0-0-0-0-0-0-0-0-0-0-0-0-0-0-0-0-0-----------------------------------|
A |-5-5-5-5-5/9-9-9-9-9-7-7-7-7-7/9-9-9-9-9-----------------------------------|
D |-5-5-5-5-5/9-9-9-9-9-7-7-7-7-7/9-9-9-9-9-----------------------------------|
With:
e |---------------------------------------------------------------------------|
B |-0-2-2-2-2-2-2-2-2-2-2-2---------------------------------------------------|
F#|--5-5-5-5-5-5-5-5-5-5-5-5--------------------------------------------------| x4
D |---------------------------------------------------------------------------|
A |---------------------------------------------------------------------------|
D |---------------------------------------------------------------------------|
Then:
e |---------------------------------------------------------------------------|
B |-----15----15----15----15----15--15-17-17p15--15---------------------------|
F#|---17----17----17----17----17---------------17-----------------------------| x2
D |-19----19----19----19----19------------------------------------------------|
A |---------------------------------------------------------------------------|
D |---------------------------------------------------------------------------|


[Verse]

e |---------------------------------------------------------------------------|
B |---------------------------------------------------------------------------|
F#|---------------------------------------------------------------------------| 
D |-0--0--0-0-0-0-0-0-0-0--0--0-0-2-2-2-2-2-----------------------------------|
A |-2--2--2-2/5-5-5-5-5-0--0--0-0-0-0-0-0-0-----------------------------------|
D |-2--2--2-2/5-5-5-5-5-0--0--0-0-0-0-0-0-0-----------------------------------|
                                                                                x5
e |-7-7-7-7--5-5-2-5--2-2-0--0-0-0--------------------------------------------|
B |-5-5-5-5--3-3-3-3--3-3-3--2-2-0--------------------------------------------|
F#|-5-5-5-5--3-3-3-3--3-3-3--0-0-0--------------------------------------------| 
D |---------------------------------------------------------------------------|
A |---------------------------------------------------------------------------|
D |---------------------------------------------------------------------------|


[Chorus]

e |---------------------------------------------------------------------------|
B |-0-0-0-0-0-0-0-0-0-0-0-0-0-0-0-0-0-0-0-0-----------------------------------|
F#|-3-3-3-3-3/7-7-7-7-7-7-7-7-7-7/9-9-9-9-9-----------------------------------| 
D |-0-0-0-0-0-0-0-0-0-0-0-0-0-0-0-0-0-0-0-0-----------------------------------|
A |-5-5-5-5-5/9-9-9-9-9-7-7-7-7-7/9-9-9-9-9-----------------------------------|
D |-5-5-5-5-5/9-9-9-9-9-7-7-7-7-7/9-9-9-9-9-----------------------------------|
                                                                                x2
e |---------------------------------------------------------------------------|
B |------10-----10-----10-----10-----10-10-12-12p10--10-9*--------------------|
F#|-10-12--10-12--10-12--10-12--10-12--------------12-------------------------| 
D |---------------------------------------------------------------------------|
A |---------------------------------------------------------------------------|
D |---------------------------------------------------------------------------|


[Bridge]

e |---------------------------------------------------------------------------|-----|
B |---------------------------------------------------------------------------|     |
F#|---------------------------------------------------------------------------|     |
D |-0--0---0-0--0-0--0--0-0-0-------------------------------------------------|     |
A |-0--0---4-4--5-5--2--2-2-0-------------------------------------------------|     |
D |-0--0---7-7--9-9--2--2-2-0-------------------------------------------------|     |
This riff is only played with the top bar then the bottom ones by itself            |
e |---5-5-5-7-5-5-----2-2-2-3-2-----------------------------------------------|     |
B |-/7-7-7-----7-7\3/5-5-5-----5-3--------------------------------------------|     |
F#|---------------------------------------------------------------------------|     | x4 
D |---------------------------------------------------------------------------|     | 
A |---------------------------------------------------------------------------|     |
D |---------------------------------------------------------------------------|     |
                                                                                    |
e |---------------------------------------------------------------------------|     |
B |---------------------------------------------------------------------------|     |
F#|---------------------------------------------------------------------------|     |
D |-0--0--0-0--0-0--0--5-5----------------------------------------------------|     |
A |-0--0--4-4--5-5--2--7-7----------------------------------------------------|     |
D |-0--0--7-7--9-9--2---------------------------------------------------------|-----|     
                                                                                    

[Chorus]

e |---------------------------------------------------------------------------|
B |-0-0-0-0-0-0-0-0-0-0-0-0-0-0-0-0-0-0-0-0-----------------------------------|
F#|-3-3-3-3-3/7-7-7-7-7-7-7-7-7-7/9-9-9-9-9-----------------------------------| 
D |-0-0-0-0-0-0-0-0-0-0-0-0-0-0-0-0-0-0-0-0-----------------------------------|
A |-5-5-5-5-5/9-9-9-9-9-7-7-7-7-7/9-9-9-9-9-----------------------------------|
D |-5-5-5-5-5/9-9-9-9-9-7-7-7-7-7/9-9-9-9-9-----------------------------------|
With:                                                                           x4
e |---------------------------------------------------------------------------|
B |-----10----10----10----10----10--10-12-12p10--10---------------------------|
F#|---12----12----12----12----12---------------12-----------------------------| 
D |-14----14----14----14----14------------------------------------------------|
A |---------------------------------------------------------------------------|
D |---------------------------------------------------------------------------|
                            

[Outro]

e |---------------------------------------------------------------------------|-----|
B |---------------------------------------------------------------------------|     |
F#|---------------------------------------------------------------------------|     |
D |-0--0---0-0--0-0--0--0-0-0-------------------------------------------------|     |
A |-0--0---4-4--5-5--2--2-2-0-------------------------------------------------|     |
D |-0--0---7-7--9-9--2--2-2-0-------------------------------------------------|     |
This riff is only played with the top bar then the bottom ones by itself            |
e |---5-5-5-7-5-5-----2-2-2-3-2-----------------------------------------------|     |
B |-/7-7-7-----7-7\3/5-5-5-----5-3--------------------------------------------|     |
F#|---------------------------------------------------------------------------|     | Repeat till end
D |---------------------------------------------------------------------------|     | 
A |---------------------------------------------------------------------------|     |
D |---------------------------------------------------------------------------|     |
                                                                                    |
e |---------------------------------------------------------------------------|     |
B |---------------------------------------------------------------------------|     |
F#|---------------------------------------------------------------------------|     |
D |-0--0--0-0--0-0--0--5-5----------------------------------------------------|     |
A |-0--0--4-4--5-5--2--7-7----------------------------------------------------|     |
D |-0--0--7-7--9-9--2---------------------------------------------------------|-----|   


************************************

| p   Pull-off
| /   Slide up
| \   Slide down
| *   Harmonic

************************************
Suggest correction
Give kudos to tab author, rate the tab!
1 2 3 4 5
comments
print report bad tab
guest
You may want to rate the tab now too:
select rating
Wanna post a correction for this tab? Suggest correction