Oops, an error
Loading. Please wait.

So Tab

37 views 1 this week
no commentswrite comment
1 2 3 4 5
3 more votes to show rating
add to favorites
launch autoscroll
font size
0
reset
how to read this tab
guitar tuner
Autoscroll
slow
fast
+/-
esc
set tempo
stop
Help us to improve Ultimate-Guitar.com Take our survey!
×
Author
Difficulty
[Intro/Verse]

e|---------------------------------------4-4-4b-4b-4-4-4-4-4b-4b-4-4---------|
B|-------7-7-5-5-------------------------------------------------------------|
G|----------------------2-2-----1-1------------------------------------------|x3
D|---------------------------------------------------------------------------|
A|-4-4------------------------------0-0--------------------------------------|
E|-----------------2-2------0-0----------------------------------------------|

e|---------------------------------------------------------------------------|
B|-2/5\2\9~~~~9/10\9--7\5----------------------------------------------------|
G|---------------------------------------------------------------------------|x1
D|---------------------------------------------------------------------------|
A|---------------------------------------------------------------------------|
E|---------------------------------------------------------------------------|


[Chorus]

e|----------------------------------4-4--------------------------------------|
B|-----7-7-5-5---------------------------------------------------------------|
G|------------------2-2-----1-1-------------2-2-----4-4-4-4-4-4--------------|x1
D|--------------------------------------------------6-6-5-5-4-4--------------|
A|-4-4--------------------------0-0-----2-2-----4-4--------------------------|
E|--------------2-2-----0-0--------------------------------------------------|


[Bridge]

e|---------------------2-2---------------------------------------------------|
B|-----3-3-------------------------------------------------------------------|
G|-------------4-4-------------4-4-------------------------------------------|x1
D|---------------------------------------------------------------------------|
A|---------2-2---------------------------------------------------------------|
E|-0-0-------------3-3-----0-0-----------------------------------------------|

e|---------------------------------------------------------------------------|
B|-9~~~~~~~~~~~~~~~~~~~~~~~~~~~~~~~~~~~~~~~~~~~~~~~~~~~~~~~~~~~~~~~~~~~~~~~~~|
G|---------------------------------------------------------------------------|
D|---------------------------------------------------------------------------|
A|---------------------------------------------------------------------------|
E|---------------------------------------------------------------------------|


[Chorus]

e|----------------------------------4-4--------------------------------------|
B|-----7-7-5-5---------------------------------------------------------------|
G|------------------2-2-----1-1-------------2-2-----4-4-4-4-4-4--------------|x1
D|--------------------------------------------------6-6-5-5-4-4--------------|
A|-4-4--------------------------0-0-----2-2-----4-4--------------------------|
E|--------------2-2-----0-0--------------------------------------------------|

e|---------------------------------------------------------------------------|
B|-2/5\2\9~~~~9/10\9-9/10\9-9/10\9-9/10\9-14/15\14-12/13\12------------------|
G|---------------------------------------------------------------------------|x1
D|---------------------------------------------------------------------------|
A|---------------------------------------------------------------------------|
E|---------------------------------------------------------------------------|


[Bridge]

e|---------------------2-2---------------------------------------------------|
B|-----3-3-------------------------------------------------------------------|
G|-------------4-4-------------4-4-------------------------------------------|x1
D|---------------------------------------------------------------------------|
A|---------2-2---------------------------------------------------------------|
E|-0-0-------------3-3-----0-0-----------------------------------------------|

e|---------------------------------------------------------------------------|
B|-12/13\12-12/13\12-12/13\12~~~---------------------------------------------|
G|---------------------------------------------------------------------------|
D|---------------------------------------------------------------------------|
A|---------------------------------------------------------------------------|
E|---------------------------------------------------------------------------|


[Chorus]

e|----------------------------------4-4--------------------------------------|
B|-----7-7-5-5---------------------------------------------------------------|
G|------------------2-2-----1-1-------------2-2-----4-4-4-4-4-4--------------|
D|--------------------------------------------------6-6-5-5-4-4--------------|
A|-4-4--------------------------0-0-----2-2-----4-4--------------------------|
E|--------------2-2-----0-0--------------------------------------------------|
                                                                              x3
e|---------------------2-2---------------------------------------------------|
B|-----3-3-------------------------------------------------------------------|
G|-------------4-4-------------4-4-------------------------------------------|
D|---------------------------------------------------------------------------|
A|---------2-2---------------------------------------------------------------|
E|-0-0-------------3-3-----0-0-----------------------------------------------|


[Verse]

e|---------------------------------------4-4--4b-4b--4-4--4b-4b--4-4---------|
B|-------7-7-5-5-------------------------------------------------------------|
G|----------------------2-2-----1-1------------------------------------------|x3
D|---------------------------------------------------------------------------|
A|-4-4------------------------------0-0--------------------------------------|
E|-----------------2-2------0-0----------------------------------------------|

e|---------------------------------------------------------------------------|
B|-2/5\2\9~~~~9/10\9-9/10\9-9/10\9-9/10\9------------------------------------|
G|---------------------------------------------------------------------------|x1
D|---------------------------------------------------------------------------|
A|---------------------------------------------------------------------------|
E|---------------------------------------------------------------------------|


[Outro]

e|---------------------------------------4-4--4b-4b--4-4--4b-4b--4-4~~~~~~~~~|
B|-------7-7-5-5-------------------------------------------------------------|
G|----------------------2-2-----1-1------------------------------------------|x1
D|---------------------------------------------------------------------------|
A|-4-4------------------------------0-0--------------------------------------|
E|-----------------2-2------0-0----------------------------------------------|


************************************

| b   Bend
| /   Slide up
| \   Slide down

************************************
Suggest correction
Give kudos to tab author, rate the tab!
1 2 3 4 5
comments
print report bad tab
guest
You may want to rate the tab now too:
select rating
Wanna post a correction for this tab? Suggest correction