Oops, an error
Loading. Please wait.

The Same Tab

22 views 3 this week
no commentswrite comment
1 2 3 4 5
3 more votes to show rating
add to favorites
launch autoscroll
font size
0
reset
how to read this tab
guitar tuner
Autoscroll
slow
fast
+/-
esc
set tempo
stop
Help us to improve Ultimate-Guitar.com Take our survey!
×
Author
Difficulty
intermediate
[Riff]

e|----12---------------------------------------------------------------------|
B|-------14--12---------12---------------------------------------------------|
G|-14-------------11-13------------------------------------------------------|
D|-------------14------------------------------------------------------------|
A|---------------------------------------------------------------------------|
E|---------------------------------------------------------------------------|


[Solo 1]

e|-0-2-4/7-4--------2-4/7-4-------2-4/7-4-------2-4-2--------2-4/7-4/9-7\4-2-|
B|-------------2-5-2---------2-5-2---------2-5-2-----5-2-5-2-----------------|
G|------------4-------------4-------------4-----------4----------------------|
D|---------------------------------------------------------------------------|
A|---------------------------------------------------------------------------|
E|---------------------------------------------------------------------------|

e|/7-4/9-7\4-------2-4-2-0---------------------------------------------------|
B|------------2-5-2-----(5)--------------------------------------------------|
G|-----------4---------------------------------------------------------------|
D|---------------------------------------------------------------------------|
A|---------------------------------------------------------------------------|
E|---------------------------------------------------------------------------|


[Solo 2]

e|-2-4/7-4/9-7-2-4/7-4/9-7-9/12-9/14-12-14/16-14-12\7-7h9p7------------------|
B|---------------------------------------------------------------------------|
G|---------------------------------------------------------------------------|
D|---------------------------------------------------------------------------|
A|---------------------------------------------------------------------------|
E|---------------------------------------------------------------------------|


************************************

| (n) Ghost note
| h   Hammer-on
| p   Pull-off
| /   Slide up
| \   Slide down

************************************
Suggest correction
Give kudos to tab author, rate the tab!
1 2 3 4 5
comments
print report bad tab
guest
You may want to rate the tab now too:
select rating
Wanna post a correction for this tab? Suggest correction