Oops, an error
Loading. Please wait.

Thorns Tab

118 views 9 this week
no commentswrite comment
1 2 3 4 5
1 last vote to show rating
add to favorites
launch autoscroll
font size
0
reset
how to read this tab
guitar tuner
Autoscroll
slow
fast
+/-
esc
set tempo
stop
Help us to improve Ultimate-Guitar.com Take our survey!
×
Author
Difficulty
intermediate
[Intro]

e|------------------------------------------------------------|
B|------------------------------------------------------------|
G|---------------------------------3--------------4-----------|x4
D|-------4-----------7---------2-------2------2-------2-------|
A|---2-------2---5-------5---0---0---0---0--2---2---2---2-----|
E|-0---0---0---0---0---0---0----------------------------------|


[Verse]
 Why......................Would i lie...........This  thing..
e|------------------------------------------------------------|
B|-10-10-10-10-10-10-10-10-5-5-5-5-5-5-5-5-5-5-2-2-2-2-3-3-3-3|
G|-7--7--7--7--7--7--7--7--3-3-3-3-3-3-3-3-3-3-0-0-0-0-0-0-0-0|
D|-9--9--9--9--9--9--9--9--5-5-5-5-5-5-5-5-5-5-2-2-2-2-2-2-2-2|
A|-9--9--9--9--9--9--9--9--5-5-5-5-5-5-5-5-5-5-2-2-2-2-2-2-2-2|
E|------------------------------------------------------------|
 It haunts me like a shadow....................................  
e|------------------------------------------------------------|
B|------------------------------------------------------------|
G|------------------------------0---2----0---2----------------|
D|-------4-----------7--------4---4----4---4------------------|
A|---2-------2---5-------5--2--------2------------------------|
E|-0---0---0---0---0---0--------------------------------------|
 Never lets me go..............................................
e|------------------------------------------------------------|
B|------------------------------------------------------------|
G|--------------------------------0-------0-------------------|
D|-------4-----------7--------4-------4-----------------------|
A|---2-------2---5-------5--2---2---2---2---------------------|
E|-0---0---0---0---0---0--------------------------------------|
 He was cross..........I knew how lost...I knew my way........
e|------------------------------------------------------------|
B|----------------------------------------------------7-7-----|
G|-----7--6--4~~~~~~~~~~4--2-------------4--2---6~~~~~6-6-----|
D|---7-----------------------0--4~~~~~~~~-----0-------7-7-----|
A|-5--------------------------------------------------7-7-----|
E|------------------------------------------------------------|
 Oh, how i played him.........................................
e|------------------------------------------------------------|
B|-11-11-11-11-10-9-------------------------------------------|
G|-11-11-11-11-10-9-------------------------------------------|
D|-9--9--9--9--8--7-------------------------------------------|
A|-11-11-11-11-10-9-------------------------------------------|
E|------------------------------------------------------------|


[Chorus]

e|------------------------------------------------------------|
B|------------------------------------------------------------|
G|------------------------------------------------------------|x4
D|--------0-------0-------------------------------------------|
A|----------0-------0-----------------------------------------|
E|-0--1/2-----2/3-----3--0------------------------------------|


[Verse]
 Dance......................Dirty man...........You dance......
e|------------------------------------------------------------|
B|-10-10-10-10-10-10-10-10-5-5-5-5-5-5-5-5-5-5-2-2-2-2-3-3-3-3|
G|-7--7--7--7--7--7--7--7--3-3-3-3-3-3-3-3-3-3-0-0-0-0-0-0-0-0|
D|-9--9--9--9--9--9--9--9--5-5-5-5-5-5-5-5-5-5-2-2-2-2-2-2-2-2|
A|-9--9--9--9--9--9--9--9--5-5-5-5-5-5-5-5-5-5-2-2-2-2-2-2-2-2|
E|------------------------------------------------------------|
 find what you've been missing................................. 
e|------------------------------------------------------------|
B|------------------------------------------------------------|
G|------------------------------0---2----0---2----------------|
D|-------4-----------7--------4---4----4---4------------------|
A|---2-------2---5-------5--2--------2------------------------|
E|-0---0---0---0---0---0--------------------------------------|
 Between the thorn and you.....................................
e|------------------------------------------------------------|
B|------------------------------------------------------------|
G|--------------------------------0-------0-------------------|
D|-------4-----------7--------4-------4-----------------------|
A|---2-------2---5-------5--2---2---2---2---------------------|
E|-0---0---0---0---0---0--------------------------------------|
 Twist until you're itching....................................
e|------------------------------------------------------------|
B|------------------------------------------------------------|
G|--------------------------------0-------0-------------------|
D|-------4-----------7--------4-------4-----------------------|
A|---2-------2---5-------5--2---2---2---2---------------------|
E|-0---0---0---0---0---0--------------------------------------|
 Beg me to come through........................................
e|------------------------------------------------------------|
B|------------------------------------------------------------|
G|--------------------------------0-------0-------------------|
D|-------4-----------7--------4-------4-----------------------|
A|---2-------2---5-------5--2---2---2---2---------------------|
E|-0---0---0---0---0---0--------------------------------------|
 Out he goes............Part of a whole.....Puppet of mine..... 
e|------------------------------------------------------------|
B|----------------------------------------------------7-7-----|
G|-----7--6--4~~~~~~~~~~4--2-------------4--2---6~~~~~6-6-----|
D|---7-----------------------0--4~~~~~~~~-----0-------7-7-----|
A|-5--------------------------------------------------7-7-----|
E|------------------------------------------------------------|
 Where will they find me?......................................
e|------------------------------------------------------------|
B|-11-11-11-11-10-9-------------------------------------------|
G|-11-11-11-11-10-9-------------------------------------------|
D|-9--9--9--9--8--7-------------------------------------------|
A|-11-11-11-11-10-9-------------------------------------------|
E|------------------------------------------------------------|


[Chorus]

e|------------------------------------------------------------|
B|------------------------------------------------------------|
G|------------------------------------------------------------|x4
D|--------0-------0-------------------------------------------|
A|----------0-------0-----------------------------------------|
E|-0--1/2-----2/3-----3--0------------------------------------|


[Outro]

e|------------------------------------------------------------|
B|------------------------------------------------------------|
G|---------------------------------3--------------4-----------|x6
D|-------4-----------7---------2-------2------2-------2-------|
A|---2-------2---5-------5---0---0---0---0--2---2---2---2-----|
E|-0---0---0---0---0---0---0----------------------------------|

e|------------------------------------------------------------|
B|-10-10-10-10-10-10-10-10-10-10-10-10-10-10-10-10-10-10-10-10|
G|-7--7--7--7--7--7--7--7--7--7--7--7--7--7--7--7--7--7--7--7-|x1
D|-9--9--9--9--9--9--9--9--9--9--9--9--9--9--9--9--9--9--9--9-|
A|-9--9--9--9--9--9--9--9--9--9--9--9--9--9--9--9--9--9--9--9-|
E|------------------------------------------------------------|



************************************

| /   Slide up

************************************
Suggest correction
Give kudos to tab author, rate the tab!
1 2 3 4 5
comments
print report bad tab
guest
You may want to rate the tab now too:
select rating
Wanna post a correction for this tab? Suggest correction