Oops, an error
Loading. Please wait.

Tv Tab

70 views 3 this week
no commentswrite comment
1 2 3 4 5
3 more votes to show rating
add to favorites
launch autoscroll
font size
0
reset
how to read this tab
guitar tuner
Autoscroll
slow
fast
+/-
esc
set tempo
stop
Help us to improve Ultimate-Guitar.com Take our survey!
×
Author
Difficulty
Tuning
novice
D A D G B E
[Intro/Verse]

e|---------------------------------------------------------------------------|
B|---------------------------------------------------------------------------|
G|---------------------------------------------------------------------------|x10
D|---------------------------------------------------------------------------|
A|---5--0---0---0------------------------------------------------------------|
D|-0------5---5---0----------------------------------------------------------|


[Chorus]

e|---------------------------------------------------------------------------|
B|---------------------------------------------------------------------------|
G|---------------------------------------------------------------------------|
D|-2--2-----/5---------------------------------------------------------------|
A|-2--2--2--/5-5---5---5-----------------------------------------------------|
D|-2--2----2/5---5---5-------------------------------------------------------|
                                                                              x3
e|---------------------------------------------------------------------------|
B|---------------------------------------------------------------------------|
G|---------------------------------------------------------------------------|
D|---------------------------------------------------------------------------|
A|---5--0---0---0------------------------------------------------------------|
D|-0------5---5---0----------------------------------------------------------|


[Bridge]

e|---------------------------------------------------------------------------|
B|---------------------------------------------------------------------------|
G|---------------------------------------------------------------------------|x1
D|-9-9\4-4/7-7\2-2/5-5/9-9\4-4/7-7\2-2/5-5/9-9\4-4/7-7\2-2/5-5\2-2-0-0-------|
A|-9-9\4-4/7-7\2-2/5-5/9-9\4-4/7-7\2-2/5-5/9-9\4-4/7-7\2-2/5-5\2-2-0--0------|
D|-9-9\4-4/7-7\2-2/5-5/9-9\4-4/7-7\2-2/5-5/9-9\4-4/7-7\2-2/5-5\2-2-0---0-----|


[Outro]

e|---------------------------------------------------------------------------|
B|---------------------------------------------------------------------------|
G|---------------------------------------------------------------------------|x4
D|---------------------------------------------------------------------------|
A|---5--0---0---0------------------------------------------------------------|
D|-0------5---5---0----------------------------------------------------------|
                                                                              
e|---------------------------------------------------------------------------|
B|---------------------------------------------------------------------------|
G|---------------------------------------------------------------------------|x1
D|-2--2-----/5---------------------------------------------------------------|
A|-2--2--2--/5-5---5---5-----------------------------------------------------|
D|-2--2----2/5---5---5-------------------------------------------------------|

e|---------------------------------------------------------------------------|
B|---------------------------------------------------------------------------|
G|---------------------------------------------------------------------------|x2
D|---------------------------------------------------------------------------|
A|---5--0---0---0------------------------------------------------------------|
D|-0------5---5---0----------------------------------------------------------|

e|---------------------------------------------------------------------------|
B|---------------------------------------------------------------------------|
G|---------------------------------------------------------------------------|x1
D|-7--7-----/5---------------------------------------------------------------|
A|-7--7--7--/5-5---5---5-----------------------------------------------------|
D|-7--7----7/5---5---5---0---------------------------------------------------|


************************************

| /   Slide up
| \   Slide down

************************************
Suggest correction
Give kudos to tab author, rate the tab!
1 2 3 4 5
comments
print report bad tab
guest
You may want to rate the tab now too:
select rating
Wanna post a correction for this tab? Suggest correction