Oops, an error
Loading. Please wait.

Walk Tab

version 1
version 1

Whole song

  • Modified fingering for the higher guitar line, whi... Show more
130 views 12 this week
no commentswrite comment
1 2 3 4 5
1 last vote to show rating
add to favorites
launch autoscroll
font size
0
reset
how to read this tab
guitar tuner
Autoscroll
slow
fast
+/-
esc
set tempo
stop
Help us to improve Ultimate-Guitar.com Take our survey!
×
Difficulty
Tuning
intermediate
D A D G B E
About this tab version
Modified fingering for the higher guitar line, which allows for more sustain. Included ninths in end of lower part. Was this info helpful? Yes No
[Lower guitar]

  •   .   •   .   •   .   •   .   •   .   •   .   •   .   •   .   •   .   •   .
E --------------------------------------------------------------------------------|
B --------------------------------------------------------------------------------|
G 9---9---9---7---9---11--6-------2-------6---------------0-------4---------------|
D --------------------------------------------------------------------------------|
A 9---9---9---9---0-------0-------4-------7---------------2-------5---------------|
D 9---9---9---9---0-------0-------4-------7---------------2-------5---------------|

  •   .   •   .   •   .   •   .   •   .   •   .   •   .   •   .   •   .   •   .
E --------------------------------------------------------------------------------|
B --------------------------------------------------------------------------------|
G 9-------7-------9---11--6-------2-------6---------------0-------4---------------|
D --------------------------------------------------------------------------------|
A 9-------9-------0-------0-------4-------7---------------2-------5---------------|
D 9-------9-------0-------0-------4-------7---------------2-------5---------------|

  •   .   •   .   •   .   •   .   •   .   •   .   •   .   •   .   •   .   •   .   •   .
E ----------------------------------------------------------------------------------------||
B ----------------------------------------------------------------------------------------||
G ----------------------------------------------------------------------------------------||
D 11--11--11--12--12----------9---9-------7-----------4---4-------7-------2---2---2---0---||
A 9---9---9---9---9-----------7---7-------5-----------2---2-------5-------0---0---0---0---||
D 8---8---8---9---9-----------7---7-------5-----------2---2-------5-------0---0---0---0---||


[Higher guitar]

  •   .   •   .   •   .   •   .   •   .   •   .   •   .   •   .   •   .   •   .
E --------------------------------------------------------------------------------|
B 15--15--15--15------------------------------10----------12----------14----------|
G 11--11--11--11--11--9---------------9---11------11----------11----------11------|
D 12--12--12--12----------12--11--12------------------12----------12----------12--|
A --------------------------------------------------------------------------------|
D --------------------------------------------------------------------------------|

  •   .   •   .   •   .   •   .   •   .   •   .   •   .   •   .   •   .   •   .
E --------------------------------------------------------------------------------|
B 8-----------8-----------8-----------8-----------8-----------8-----------8-------|
G ----11----------11----------11----------11----------11----------11----------11--|
D --------12----------12----------12----------12----------12----------12----------|
A --------------------------------------------------------------------------------|
D --------------------------------------------------------------------------------|

  •   .   •   .   •   .   •   .   •   .   •   .   •   .   •   .   •   .   •   .   •   .
E ----------------------------------------------------------------------------------------||
B ----------------------------10----------12----------14----------15----------15----------||
G 11--9---------------9---11------11----------11----------11----------11----------11------||
D --------9---11--12------------------12----------12----------12----------12----------12--||
A ----------------------------------------------------------------------------------------||
D ----------------------------------------------------------------------------------------||
Suggest correction
Give kudos to tab author, rate the tab!
1 2 3 4 5
comments
print report bad tab
guest
You may want to rate the tab now too:
select rating
Wanna post a correction for this tab? Suggest correction