Oops, an error
Loading. Please wait.

I Wanna Be With Her Tab

164 views 1 this week
no commentswrite comment
1 2 3 4 5
please rate
add to favorites
launch autoscroll
font size
0
reset
how to read this tab
guitar tuner
Autoscroll
slow
fast
+/-
esc
set tempo
stop
Help us to improve Ultimate-Guitar.com Take our survey!
×
Author
Difficulty
intermediate
Alex Gardners not so new actually but totally amazing song 'I wanna be with her'

The chords work for both - the actual and the acoustic version. 
NOTE for the studio version: the second chorus (down below) is the one played throughout the song.

Studio version: http://www.youtube.com/watch?v=rr6GgAH_iUI
Acoustic version: http://www.youtube.com/watch?v=_pp18JFaZ1M

Have fun guys!


Chords:

   Am  Cm  Gm  Fm Dsus2 E
e|--5---8---3---1---5---0-|
B|--5---8---3---1---5---0-|
G|--5---8---3---1---7---1-|
D|--7---10--5---3---7---2-|
A|--7---10--5---3---5---2-|
E|--5---8---3---1-------0-|

__________________________________________

NOTE: THE STRUMMING PATTERN IS SIMPLIFIED!
__________________________________________

Intro (not in the acoustic version)

e|---------------------------------|
B|---------------------------------|
G|-5--------5--------5-------7~7~--|
D|---7-5-7----7-5-7----7-5-7-----5-|
A|---------------------------------|
E|---------------------------------|

e|------------------------------------|
B|------------------------------------|
G|-5--------5--------5--------5-------|
D|---7-5-7----7-5-7----7-5-7----7-5-7-|
A|------------------------------------|
E|------------------------------------|

e|-----------------------------------------------|
B|------------5------------------------5---------|
G|-5----5-5-7---5---4-4-5-7-5----5-5-7---4~------|
D|---7-----------7------------7------------------|
A|-----------------------------------------------|
E|-----------------------------------------------|

e|---------------|
B|---5-----------|
G|-7---7-5-------|
D|---------7-5-7-|
A|---------------|
E|---------------|

Intro & Verse

   Am              Cm      Gm       Fm        Gm
e|--5-5--5-5--5-5---8--8----3---3----1--1--1---3--3--3-|
B|--5-5--5-5--5-5---8--8----3---3----1--1--1---3--3--3-|
G|--5-5--5-5--5-5---8--8----3---3----1--1--1---3--3--3-|
D|--7-5--7-7--7-7---10-10---5---5----3--3--3---5--5--5-|
A|--7-7--7-7--7-7---10-10---5---5----3--3--3---5--5--5-|
E|--5-7--5-5--5-5---8--8----3---3----1--1--1---3--3--3-|

Pre-Chorus

   Dsus2  Am Gm  Fm     Gm
e|--5--5---5--3---1--1---3--3-|
B|--5--5---5--3---1--1---3--3-|
G|--7--7---5--3---1--1---3--3-|
D|--7--7---7--5---3--3---5--5-|
A|--5--5---7--5---3--3---5--5-|
E|---------5--3---1--1---3--3-|

   Dsus2  Am Gm  Fm      E
e|--5--5---5--3---1--1---0--0-|
B|--5--5---5--3---1--1---0--0-|
G|--7--7---5--3---1--1---1--1-|
D|--7--7---7--5---3--3---2--2-|
A|--5--5---7--5---3--3---2--2-|
E|---------5--3---1--1---0--0-|

Chorus

   Am              Cm      Gm       Fm        Gm
e|--5-5--5-5--5-5---8--8----3---3----1--1--1---3--3--3-|
B|--5-5--5-5--5-5---8--8----3---3----1--1--1---3--3--3-|
G|--5-5--5-5--5-5---8--8----3---3----1--1--1---3--3--3-|
D|--7-5--7-7--7-7---10-10---5---5----3--3--3---5--5--5-|
A|--7-7--7-7--7-7---10-10---5---5----3--3--3---5--5--5-|
E|--5-7--5-5--5-5---8--8----3---3----1--1--1---3--3--3-|

   Am              Cm      Gm       Fm        Am
e|--5-5--5-5--5-5---8--8----3---3----1--1--1---5--5--5-|
B|--5-5--5-5--5-5---8--8----3---3----1--1--1---5--5--5-|
G|--5-5--5-5--5-5---8--8----3---3----1--1--1---5--5--5-|
D|--7-5--7-7--7-7---10-10---5---5----3--3--3---7--7--7-|
A|--7-7--7-7--7-7---10-10---5---5----3--3--3---7--7--7-|
E|--5-7--5-5--5-5---8--8----3---3----1--1--1---5--5--5-|
__________________________________________

NOTE:

2nd Chorus

   Am              Cm      Gm       Fm        Gm
e|--5-5--5-5--5-5---8--8----3---3----1--1--1---3--3--3-|
B|--5-5--5-5--5-5---8--8----3---3----1--1--1---3--3--3-|
G|--5-5--5-5--5-5---8--8----3---3----1--1--1---3--3--3-|
D|--7-5--7-7--7-7---10-10---5---5----3--3--3---5--5--5-|
A|--7-7--7-7--7-7---10-10---5---5----3--3--3---5--5--5-|
E|--5-7--5-5--5-5---8--8----3---3----1--1--1---3--3--3-|

   Am              Cm      Gm       Fm     Gm   Am
e|--5-5--5-5--5-5---8--8----3---3----1--1---3---5--5--5-|
B|--5-5--5-5--5-5---8--8----3---3----1--1---3---5--5--5-|
G|--5-5--5-5--5-5---8--8----3---3----1--1---3---5--5--5-|
D|--7-5--7-7--7-7---10-10---5---5----3--3---5---7--7--7-|
A|--7-7--7-7--7-7---10-10---5---5----3--3---5---7--7--7-|
E|--5-7--5-5--5-5---8--8----3---3----1--1---3---5--5--5-|
__________________________________________

Bridge

   Am    Cm    Dsus2   Fm   E
e|--5-----8------5-----1----0-|
B|--5-----8------5-----1----0-|
G|--5-----8------7-----1----1-|
D|--7-----10-----7-----3----2-|
A|--7-----10-----5-----3----2-|
E|--5-----8------------1----0-|
Suggest correction
Give kudos to tab author, rate the tab!
1 2 3 4 5
comments
print report bad tab
guest
You may want to rate the tab now too:
select rating
Wanna post a correction for this tab? Suggest correction