Oops, an error
Loading. Please wait.

Looking For Water Tab

408 views 1 this week
no commentswrite comment
1 2 3 4 5
2 more votes to show rating
add to favorites
launch autoscroll
font size
0
reset
how to read this tab
guitar tuner
Autoscroll
slow
fast
+/-
esc
set tempo
stop
Help us to improve Ultimate-Guitar.com Take our survey!
×
Difficulty
novice
-------------------------------------------------------------------------------
                             Looking For Water- Alex Parks                
-------------------------------------------------------------------------------
Tabbed by: Ebony (laura c)
Email:laura_the_leprechaun@hotmail.com

Tuning:standard
intro/verse
e|-----------0-------------0--0----------------------------------------------|
B|-----------0-------------0--0----------------------------------------------|
G|-----------2-------------1--6----------------------------------------------|
D|1-h2p-1----2-1-h2p-1-----2--6----------------------------------------------|
A|-------2-0-0--------2----2--4----------------------------------------------|
E|--------4--0---------4-0-0--0----------------------------------------------|
listen to track for strumming pattern and how many times to repeat

pre- chorus (you're in my head.... but i have to say goodbye)
e|------------------------0-------------0------------------------------------|
B|----------0---------0--------------4----------------0----------------------|
G|------2---------2--------------4----------------4--------------------------|
D|---2---------2-------------------------------4-----------------------------|
A|---------------------------4-----------------------------------------------|
E|2----------------------------------------4---------------------------------|

chorus (listen to track for strumming pattern)
e|---------------------------------------------------------------------------|
B|---------------------------------------------------------------------------|
G|--9--9--7---------5--7--9--------------------------------------------------|
D|--9--9--7--7------5--7--9--------------------------------------------------|
A|--7--6--5--7------3--5--7--------------------------------------------------|
E|-----------5---------------------------------------------------------------|
| h  hammer-on
| p  pull-off
Suggest correction
Give kudos to tab author, rate the tab!
1 2 3 4 5
comments
print report bad tab
guest
You may want to rate the tab now too:
select rating
Wanna post a correction for this tab? Suggest correction