Oops, an error
Loading. Please wait.

Aunque No Te Pueda Ver Tab

version 2
version 2

Whole song

7,670 views 1 this week
1 commentread comment
1 2 3 4 5
please rate
add to favorites
launch autoscroll
font size
0
reset
how to read this tab
guitar tuner
Tab Pro tools
  • play this tab
  • loop segment
  • change instrument
  • show fretboard
  • metronome
×
Best way to learn
"Aunque No Te Pueda Ver"
Autoscroll
slow
fast
+/-
esc
set tempo
stop
Contributor
Difficulty
bueno la siguiente Kancion va dedikada ami GraN ILusion !!!

Soi El angelithop q SiemPre tE qUidara Aunq No te PuEDa vEr

                          ♥♥♥♥♥♥♥rUbí ♥♥♥♥♥♥♥


INTRO
e-----7-----5-4--------------4---------7--5--4-------------------------|
b-5-----7---------7-5----7-----7------------------7--5-----------------|
g----------------------------------------------------------------------|
D----------------------------------------------------------------------|
A----------------------------------------------------------------------|
E----------------------------------------------------------------------|

e---2------2---4--------4------------------------------|
b-----4-----------5---7--4--2/4---2-4---------------2--|
g-------4-----------4-----------------4---2-1-------2--|
D---------------------------------------------4-----2--|
A---2----------2------------------------------------0--|
E------------------------------------------------------|
I
Si ayer tuviste un día       gris       tranquila yo are
e--------------4--2---0---------------2---------0----------------|
b----------5-------------4---------4------5-4---2----------------|
g-------4----------------4------4---------------2----------------|
D--2--------------------------------------------2----------------|
A---------------------------2-------------------0----------------|
E----------------------------------------------------------------|

 Canciones para sonreír ver   si asi consigo hacerte       sonreír
e-0------------------------------4---2---0------------2--------0-----|
b-2-----2---4----4------5------5------------4-------4---5—4-2--2-----|
g-2--2------4--4--------4---4---------------4-----4------------2-----|
D-2---------------------2--------------------------------------2-----|
A-0---------2---------------------------------2----------------0-----|
E--------------------------------------------------------------------|

Si    lo   que    quieres es          huir            camina,      yo are
                                   e---7-5-4------|
                                   B---7-5-4-7-5--|
                                   g---------6-4--|

e--------------4--2---0------------------------2-----------0---|
b----------5--------------------4----------4-------5---4---2---|
g-------4-----------------------4------4-------------------2---|
D--2-------------------------------------------------------2---|
A-------------------------------2--------------------------0---|
E--------------------------------------------------------------|

     Canciones    para ver, si así consigo fuerzas  pa`vivir
e-------0-----------------------------4---2---0---------------2--------0--|
B--2--------4------4--5---------5---------------4-------4-------5--4---2--|
g----2-----------4----------4-------------------4-----4----------------2--|
D--2--------4---------2------------------------------------------------2--|
A--------------------------------------------------2-------------------0--|
E-------------------------------------------------------------------------|
Pre-coro
E                F#m7                               G#m                        A
No tengo mas motivos parta darte que este miedo que me da a no volver a verte nunca mas

Coro
E                                    G#m
Creo ver la lluvia caer en mi ventana te veo pero no esta lloviendo, no es mas que un
 A                   B              C#m              B
 reflejo de mi pensamiento, hoy te hecho de meno………s   yo…
                          e---------------------|
                          b--4-5---4-5-7--------|
                          g-6-------------------|

  e-4--
    E                                             G#m
Solo quiero hacerte saber amiga estés donde estés que si te falta el aliento yo te lo
A
daré….
                B              C#m              B
Si te sientes sola háblame que te estaré escuchando
                 A                            B
Aun que no te pueda ver….r   Aun que no te pueda ve….r

                                e----5--4--2-----------|
                                b------------5—5/7-----|
                                g--4-------------------|

En este solo las notas de la armonía son las mismas del coro.
Solo
e------4--4--4--4--4--4----2--2--2--4---7--7--7---7/7--7--7--11/12-11-------------|
b--------------------------------------------------------------------12-7/9-7---7-|
g-2/2--4--4--4--4--4--4----2--1--2--4---8--8--8---6/8--8--8-------------------9---|
D------2-------------------2--2--2------6-----------------------------------------|
A---------------------------------------------------------------------------------|
E---------------------------------------------------------------------------------|

e-------------------------|
b---5-7/9-7---7-----------|
g-6---------9-----9-8-----|
D--------------------9/11-|
A-------------------------|
E-------------------------|

II
De tantas cosas que perdí diría, que solo guardo lo que fue, mágico tiempo que nació un abril
        E                 B                 A                    A    B                  
E   B                 A
e------------0------------0---0------------------------------------0-----------0-0-|
b---------0-----4------4------2------2------2-----4------------0------4------4---2-|
g-------1-------4----4--------2----2------2-----4------------1--------4----4-----2-|
D----2----------4--4----------2--2------2------4-----------2----------4--4-------2-|
A---------------2-------------0---------------------------------------2----------0-|
E--0-----------------------------------------------------0-------------------------|

      Miradas tristes sobre mi                      se anidan  y se hace..n

                            e--7-----5-----4-----------|
                            B--7-----5-----4--7------5-|
                            g-----------------6------4-|

e--------------4--2---0------------------------2------------0-----|
b----------5--------------------4----------4-------5---4----2-----|
g-------4-----------------------4------4--------------------2-----|
D--2--------------------------------------------------------2-----|
A-------------------------------2---------------------------0-----|
E-----------------------------------------------------------------|

           Parte de mi piel, y ahora siempre llueve por que estoy sin  ti
e-------------0------------------------------4----2---0---------------2--------0-|
B-2-----------------4------4--5---------5----------------4-------4--------5-4--2-|
g--------2---------------4----------4--------------------4-----4---------------2-|
D-2-----------------4---------2------------------------------------------------2-|
A----------------------------------------------------------2-------------------0-|
E--------------------------------------------------------------------------------|
Pre-coro
E                F#m7                               G#m                        A
No tengo mas motivos parta darte que este miedo que me da a no volver a verte nunca mas

Coro
E                                    G#m
Creo ver la lluvia caer en mi ventana te veo pero no esta lloviendo, no es mas que un
 A                   B              C#m              B
 reflejo de mi pensamiento, hoy te hecho de meno………s   yo…
                           e------------------|
                           b--4-5---4-5-7-----|
                           g-6----------------|

  e-4--
    E                                             G#m
Solo quiero hacerte saber amiga estés donde estés que si te falta el aliento yo te lo
A
daré….
                B              C#m              B
Si te sientes sola háblame que te estaré escuchando
                 A                            B
Aun que no te pueda ver….r   Aun que no te pueda ve….r

                                e----5--4--2-----------|
                                b------------5—5/7-----|
                                g--4-------------------|
Solo
e------4--4--4--4--4--4----2--2--2--4---7--7--7---7/7--7--7--11/12-11-------------|
b--------------------------------------------------------------------12-7/9-7-----|
g-2/2--4--4--4--4--4--4----2--1--2--4---8--8--8---6/8--8--8-------------------9---|
D------2-------------------2--2--2------6-----------------------------------------|
A---------------------------------------------------------------------------------|
E---------------------------------------------------------------------------------|

e------4-5-4-------------------------------------|
b----5-------7--5-4-------4-5-7/9-7.------7------|
g--4----------------4/6.-6--------------8--------|
D-------------------------------------9----------|
A------------------------------------------------|
E------------------------------------------------|

e------4--4--4--4--4--4----2---2--2---4-----7--7--7---7/7--7--7---9-11-12-11-9---|
b----------------------------------------------------------------9---------------|
g-2/2--4--4--4--4--4--4----2---1--2---4-----8--8--8---6/8--8--8------------------|
D------2-------------------2---2--2---------6------------------------------------|
A--------------------------------------------------------------------------------|
E--------------------------------------------------------------------------------|

e--------------------------------4-----------------4-------------------|
b-12-10—9/10--------7/9-----5--7----------4--5--7----7-----------------|
g------------11--10-------6--------6----6---------------4--------------|
D----------------------------------------------------------------------|
A----------------------------------------------------------------------|
E----------------------------------------------------------------------|

e------4--4--4--4--4--4----2---2--2---4---------------|
b-----------------------------------------------------|
g-2/2--4--4--4--4--4--4----2---1--2---4-----4--4-4----|
D------2-------------------2---2--2-------4-----------|
A-----------------------------------------------------|
E-----------------------------------------------------|

e-----------------7-7/9--9-9-9-7-7------------------------|
b----------5-7-9--------------------------9-9-9-9-10-7----|
g------6-8---------------9-9-9-9-9----7-9-----------------|
D---6-------------------------------9---------------------|
A---------------------------------------------------------|
E---------------------------------------------------------|


Alan !!!!
comments
We did not receive enough feedback on this tab! Please rate:
print report bad tab
1 2 3 4 5
1 comment total.
0 reply
alan_metallica wrote on June 2 2008, 06:57 pm

ola !!!

I want to post or [tab]
guest
You may want to rate the tab now too:
select rating
Please do not post tabs as comments. Select "correction" instead!