Oops, an error
Loading. Please wait.

Sigo Aqui Tab

version 1
version 1

Whole song

2,205 views 3 this week
no commentswrite comment
1 2 3 4 5
please rate
add to favorites
launch autoscroll
font size
0
reset
how to read this tab
guitar tuner
Autoscroll
slow
fast
+/-
esc
set tempo
stop
Help us to improve Ultimate-Guitar.com Take our survey!
×
Difficulty
novice
sigo Aquí (Im still here) edited by :K-xD
Acordes:
     G     Csus2  A7sus4     D      Em7      
e|---3---|---3---|---3---|---2---|---3---|
B|---3---|---3---|---3---|---3---|---3---|
G|---0---|---0---|---2---|---2---|---0---|
D|---0---|---2---|---2---|---0---|---2---|
A|---2---|---3---|---0---|-------|---2---|
E|---3---|-------|-------|-------|---0---|

Intro: x2 
 
    G            Csus2       G           Csus2
e|---------------------------------------------------------|
B|--------3---3-------3---3--------3---3-------3---3-------|
G|------0---0-------0---0--------0---0-------0---0---------|
D|----0-----------2------------0-----------2---------------|  
A|--------------3------------------------3-----------------|
E|--3------------------------3-----------------------------|

Verso I: 
      G            Csus2      
e|-----------------------------|
B|--------3-----------3--------|
G|------0---0-------0---0------|
D|----0-------0---2-------0----|x3
A|--------------3--------------|
E|--3--------------------------|
  Soy, la pregunta del millón,
  siempre la interrogación,
  no respondas, 

     A7sus4      Csus2
e|-----------------------------|
B|--------3-----------3--------|
G|------2---2-------0---0------|
D|----2-------2---2-------0----|
A|--0-----------3--------------|
E|-----------------------------|
  que si, por que si.

      G            Csus2      
e|-----------------------------|
B|--------3-----------3--------|
G|------0---0-------0---0------|
D|----0-------0---2-------0----|x3
A|--------------3--------------|
E|--3--------------------------|
  ¿Y que, que podrías tu decir?
  si yo no te voy a oir,
  no me entiendes,

     Em7     D    Csus2         
e|-----------------------------|
B|------3------3---(3)---------|
G|----0------2-----(0)---------|
D|--2------0-------(2)---------|
A|------------------3----------|--(3)-(2)------|
E|-----------------------------|----------(3)--|
  y nunca seré lo que esperas de mi 

Intermedio:

      G            Csus2       G           Csus2
e|---------------------------------------------------------|
B|--------3---3-------3---3--------3---3-------3---3-------|
G|------0---0-------0---0--------0---0-------0---0---------|
D|----0-----------2------------0-----------2---------------|
A|--------------3------------------------3-----------------|
E|--3------------------------3-----------------------------|


Verso II:

      G            Csus2      
e|-----------------------------|
B|--------3-----------3--------|
G|------0---0-------0---0------|
D|----0-------0---2-------0----|x3
A|--------------3--------------|
E|--3--------------------------|
  Jamás, ya me vas a conocer,
  niño y hombre puedo ser,
  no me uses,

     A7sus4      Csus2
e|-----------------------------|
B|--------3-----------3--------|
G|------2---2-------0---0------|
D|----2-------2---2-------0----|
A|--0-----------3--------------|
E|-----------------------------|
  y apartes de ti.

      G            Csus2      
e|-----------------------------|
B|--------3-----------3--------|
G|------0---0-------0---0------|
D|----0-------0---2-------0----|x3
A|--------------3--------------|
E|--3--------------------------|
  Y vi, como alguien aprendió,
  lo que nadie le enseñó,
  no me entienden,

   Em7     D    Csus2       
e|--------------------|
B|--3------3------3---|
G|--0------2------0---|
D|--2------0------2---|
A|--2-------------3---|-(3)-(2)----(3)-(2)-----|
E|--------------------|---------(3)--------(3)-|
  no estoy aquí.   


  A          D         A
Y yo sólo quiero ser real
     D             A
Y sentir el mundo igual
        D       F#m          E
Que Los otros seguir siempre así
    A         D           A
Por qué yo tendría que cambiar
      D                A
Nadie más lo va a intentar
      D
Y no entienden
    F#m   E
Que sigo aquí


Verso III:

      G            Csus2      
e|-----------------------------|
B|--------3-----------3--------|
G|------0---0-------0---0------|
D|----0-------0---2-------0----|x3
A|--------------3--------------|
E|--3--------------------------|
  Y tú,
  ves lo que ellos nunca ven,
  te daría el cien por cien,
  me conoces,

     A7sus4      Csus2
e|-----------------------------|
B|--------3-----------3--------|
G|------2---2-------0---0------|
D|----2-------2---2-------0----|
A|--0-----------3--------------|
E|-----------------------------|
  y ya no hay temor.
 
      G            Csus2      
e|-----------------------------|
B|--------3-----------3--------|
G|------0---0-------0---0------|
D|----0-------0---2-------0----|x3
A|--------------3--------------|
E|--3--------------------------|
  Yo mostraría lo que soy,
  si tú vienes yo me voy,
  no me alcanzan,
  
   Em7     D    Csus2       
e|--------------------|
B|--3------3------3---|
G|--0------2------0---|
D|--2------0------2---|
A|--2-------------3---|-(3)-(2)----(3)-(2)-----|
E|--------------------|---------(3)--------(3)-|
  si eres mi amigo mejor. 


E                        F#m
 Que sabrán del mal y el bien
E                 F#m
 Yo no soy lo que ven
         E
Todo un mundo durmiendo
                   F#m
Y yo sigo soñando por qué
      D                F#m
Sus palabras susurran mentiras
             E    F#m
Que nunca creeré

 
 A          D         A
Y yo sólo quiero ser real
     D             A
Y sentir el mundo igual
        D          F#m       E
Que Los otros, por ellos, por mí
    A         D           A
Por qué yo tendría que cambiar
      D                A
Nadie más lo va a intentar
       D
Estoy sólo
  F#m   E
Y sigo aquí
     A
Sólo yo

  F#m E  A
Estoy aquí

F#m E   A
Sigo aquí

F#m E   A
Sigo aquí

Suggest correction
What's this?
You can suggest a correction to this tab. Community and Mods will review your correction and vote to approve or reject it.
comments
We did not receive enough feedback on this tab! Please rate:
print report bad tab
1 2 3 4 5
guest
You may want to rate the tab now too:
select rating
Please do not post tabs as comments. Select "correction" instead!