Oops, an error
Loading. Please wait.

Goo Lagoon tab

31 views 1 this week
no commentswrite comment
1 2 3 4 5
3 more votes to show rating
add to favorites
×
Save as Personal and add changes to this tab that will be seen only by you. Learn more ›
×
You can save this tab as Personal to edit and correct it or add notes. All changes will be seen only by you. Learn more »
launch autoscroll
font size
0
reset
how to read this tab
guitar tuner
edit
Autoscroll
slow
fast
+/-
esc
set tempo
stop
About this tab version
This version contains the main riff as it appears on the game's soundtrack, some notes have been changed to simplify the seemingly random pattern while still keeping true to the original. Was this info helpful? Yes No
Well I couldn't really find it anywhere else online so I decided to make it myself, here's
the tab for one of Spongebob Squarepants: Battle for Bikini Bottom's most popular songs
~Goo Lagoon~
Now because most of this was done by ear, it may not be exactly true to how it is recorded,
but in my opinion it sounds pretty close, anyways hope you enjoy it

[Intro]
e|---------------------------------------------------------------------------|
B|---------------------------------------------------------------------------|
G|--------5----7------------------5----7-------------------------------------|
D|-5------5----7----5------5------5----7----5--------------------------------|
A|-5------3----5----5------5------3----5----5--------------------------------|
E|-3----------------3------3----------------3--------------------------------|

[Main Riff]
e|-------------------------------------------------------------------------------------|
B|-------------------------------------------------------------------------------------|
G|-------------------------------------------------------------------------------------|
D|-------------------------------------------------------------------------------------|
A|---------------------------1-2-1---------------------------1-2-----------------------|
E|-3-3-3-2-1-1-1-2-3-3-3-3-3-------3-3-3-2-1-1-1-2-3-3-3-3-3---------------------------|

e|-------------------------------------------------------------------------------------|
B|-------------------------------------------------------------------------------------|
G|-------------------------------------------------------------------------------------|
D|---------------------------1-2-1-----------------------------------------------------|
A|-3-3-3-2-1-1-1-2-3-3-3-3-3-------3-3-3-2-1-1-1-2-3-3-3-2-3---------------------------|
E|-----------------------------------------------------------1-2-3-3-3-2-3-2-1-1-1-2-3-|

            
            
Suggest correction
Creating personal tab
Creating personal tab
You can edit any tab online and save it as your Personal.

You can edit, replace or remove any tab part or add personal notes – all changes will be seen only by you.

Personal tabs can be accessed anytime from any device, even offline.
Learn more »
Give kudos to tab author, rate the tab!
1 2 3 4 5
comments
print report bad tab
guest
You may want to rate the tab now too:
select rating
Wanna post a correction for this tab? Suggest correction