Oops, an error
Loading. Please wait.

A Million Years Chords

21,071 views 57 this week
1 commentread comment
1 2 3 4 5
accurate
x 8
add to favorites
launch autoscroll
font size
0
reset
transpose
0
reset
- display chords -
guitar tuner
Tab Pro tools
  • play this tab
  • loop segment
  • change instrument
  • show fretboard
  • metronome
Autoscroll
slow
fast
+/-
esc
set tempo
stop
Contributor
Difficulty
novice
-------------------------------------------------------------------------------
                             A Million Years - Alexander
-------------------------------------------------------------------------------
Tabbed by: Kirina Marie
Email: smilesunflowr@aol.com

It's my first tab, sorry for any mistakes! Lovely song to sing with friends :)

Tuning: Standard

Here's a loose interpretation of the catchy riff, not 100% correct but definitely 
adds something :)

e|-------------------------------------------|
B|-------------------------------------------|
G|-------------------------------------------|
D|-------------------------------------------|
A|-------------0-2---7-5-3-2---7-5-3-2---2-0-|
E|-3--3-3--3-3-----3---------3---------3-----|

Verse:

G                 C       G
I love you like grave danger
    C       G            D
Like moon shining disguise
      G
Mmm hmm
G                    C       G
When I wake up with your makeup
  C          G              D
And spread blush cross the sky

Chorus:
       C         G
Like a meteor crush
          C         G
I'm gonna tell the world
         C      G         (D)
Been a million years full of tears
         C        G
But I found my girl

G             C       G
My notion of love devotion
      C       G       D
Was a corrosion of mind
        G
Mmm hmm
G                  C            G
Then come cupid and now I'm stupid
     C       G       D
And I feel it's just fine

      C         G
Like exploding face
            C         G
I'm gonna tell the world
         C      G          (D)        
Been a million years full of fears
       C        G
But I found my girl

It's a spun tongue
It's a holy shit
It's a loud cry from the heart
It's a live death
It's a big breath
It's a no more we're apart

Like a rainbow crash
As we bow and swirl
Been a million years full of tears
But I found my girl

Like exploding sun
Let the light unfurl
Been a million years full of fears
But I found my girl     


************************************

| /   slide up
| \   slide down
| h   hammer-on
| p   pull-off
| ~   vibrato
| +   harmonic
| x   Mute note
| b   Bend
| pb  Pre-bend
| br  Bend release
| pbr Pre-bend release
| brb Bend release bend

************************************
comments
print report bad tab
1 comment total.
0 reply
Acoustic_Fiend wrote on October 9 2011, 04:20 pm

intro sounds more like this:

e|----------------------------------------------------------|
B|----------------------------------------------------------|
G|----------------------------------------------------------|
D|--------------------2--0-0-------------2--0-0-------------|
A|-------------0-2------------2-2--2-2-----------2-2--2-2---|
E|-3--3-3--3-3-----3-------------------3------------------3-|

e|---------------------------|
B|---------------------------|
G|---------------------------|
D|--0--0-0--0-0--0-0--0-0-2--|
A|---------------------------|
E|---------------------------|

I want to post or [tab]
guest
You may want to rate the tab now too:
select rating
Please do not post tabs as comments. Select "correction" instead!