Oops, an error
Loading. Please wait.

Vals Boston Tab

1,413 views 18 this week
no commentswrite comment
1 2 3 4 5
please rate
add to favorites
launch autoscroll
font size
0
reset
how to read this tab
guitar tuner
Tab Pro tools
  • play this tab
  • loop segment
  • change instrument
  • show fretboard
  • metronome
×
Best way to learn
"Vals Boston"
Autoscroll
slow
fast
+/-
esc
set tempo
stop
Contributor
Difficulty
intermediate
     Q    H        E  E       E  E  E  E  E  E  E  E   
E||----------------------||---5-----------L--3--2--3--|
B||-------------------0--||---------0-----------------|
G||----------------3-----||*-----0-----0--------------|
D||----------------------||*--------------------------|
A||----------------------||---------------2-----------|
E||----------------------||---0-----------------------|


  E  E  E  E  E  E  E  E     E  E  E  E  E  E  E  E  E  E  E  E   
--2--0--L--------------0--|--3-----------------------------------|
-----------0-----0--4-----|--------1--1--L-----------------------|
--------0--------0--------|--------------------2-----------1--2--|
--------------------------|-----2-----------2-----2-----2--------|
--------------2-----------|--0-----------0-----------3-----------|
--0-----------------------|--------------------------------------|


  E  E  E  E  E  E  E  E     E  E  E  E  E  E  E  E   
--3-----------L--2--0--2--|--0-----------------------|
--------3-----1-----------|--1--3--L-----------2--3--|
-----2-----2--2-----------|--2--------------2--------|
--0-----------------------|--0--------------0--------|
--------------0-----------|--------------------------|
--------------------------|--------0--1--2-----------|


  E  E  E  E  E  E  E  E     E  E  E  E  E  E  E  E   
--2-----------------------|--5--3--L-----------2--3--|
-----0--L--------------0--|-----------0-----0--------|
-----------0-----2--3-----|--------0--------2--------|
--------0--------1--------|--------------------------|
--------------2-----------|--------------2-----------|
--3-----------------------|--0-----------------------|


  E  E  E  E  E  E  E  E     E  E  E  E  E  E  E  E  E  E  E  E   
--2--0--L-----------0-----|--7-----------------8--5-----3--0--3--|
-----------0--4-----------|--------5--------5--------------------|
--------0--------0-----0--|-----5-----5-----5--------------------|
--------------------------|--------------------------------------|
--------------------------|--0-----------------------------------|
--3-----------------------|--------------0-----------0-----------|


  E  E  E  E  E  E  E  E     E  E  E  E  E  E  E  E   
--L-----------------2--1--|--2-----------------------|
--------------------------|-----------------2--1--2--|
--------3--------3--------|--------2-----------------|
-----2-----2-----0--------|-----2-----2--------------|
--3-----------------------|--------------0-----------|
--------------3-----------|--2-----------------------|


  E  E  E  E  E  E  E  E     E  E  E  E  E  E  E       E  E  E  E  E  E  E  E   
--0-----2--0--------------|--------------7---------||--------------7--------0--|
-----1--------4-----------|-----------0--------0---||-----------0--------4-----|
-----2--------------2-----|--------0--------3-----*||--------0--------0--------|
-----------------4-----4--|-----1-----------------*||-----1--------------------|
--2-----------2-----------|--2---------------------||--2-----------------------|
--------------------------|------------------------||--------------------------|


    E  E  E  E  E  E  E  E  E     E  E  E  E  E  E  E  E  E   
|---2--0--0--------------------|--0--------------------------|
|---3--------3--------3--2--3--|--3--3--3--2--------2--1--2--|
|*--0-----------0--------------|--0-----------0--------------|
|*-----------------------------|-----------------------------|
|------------------2-----------|-----------------2-----------|
|---0--------------------------|--0--------------------------|


  E  E  E  E  E  E  E  E     E  E  E  E  E  E  E  E   
--------------------------|-----------------5--5--5--|
--3--2--1--2--3--2--1-----|--0-----------------------|
--0-----------------------|--------2-----------------|
-----------------------4--|-----1-----1--------------|
--------------2-----------|--------------3-----------|
--0-----------------------|--2-----------------------|


  E  E  E  E  E  E  E  E  E     E  E  E  E  E  E  E  E  E   
--7--5--5--3--------3--2--3--|--5--3--3--2--------2--1--2--|
--5--------------------------|-----------------------------|
--5--------------------------|-----------------------------|
-----------------------------|-----------------------------|
--0--------------0-----------|--0--------------0-----------|
--------------0--------------|--------------0--------------|


  E  E  E  E  E  E  E  E     E  E  E  E  E  E  E  E     
--3--2--3--2--3--2--------|-----------------------0---||
--4-----------------4-----|--0-----------0-----4------||
--2--------------------5--|-----------0-----0--------*||
--------------------------|--------2-----------------*||
--2-----------------------|-----4---------------------||
--------------------------|--0------------------------||


  E  E  E  E  E  E  E  E     E  E  E  E   H          
-----------------3--2--3--|--0-----------12--------||
--3--2--2--1--0-----------|--------0-----12--------||
--3-----------2-----------|-----0-----0--12--------||
--2-----------1-----------|------------------------||
--------------2-----------|------------------------||
--2-----------------------|--0---------------------||




Duration Legend
---------------
W - whole
H - half
Q - quarter
E - 8th
S - 16th
T - 32nd
X - 64th
. - note dotted
|-n-|  - n-tuplets


Tablature Legend
----------------
L - tied note
x - dead note
g - grace note
(n) - ghost note
> - accentuded note
NH - natural harmonic
AH - artificial harmonic
TH - tapped harmonic
SH - semi harmonic
PH - pitch harmonic
h - hammer on
p - pull off
b - bend
br - bendRelease
pb - preBend
pbr - preBendRelease
brb - bendReleaseBend
\n/ - tremolo bar dip
\n - tremolo bar dive
-/n - tremolo bar Release up
/n\ - tremolo bar inverted dip
/n - tremolo bar return
-\n - tremolo bar Release down
S - shift slide
s - legato slide
/ -  slide into from below or out of upwards
\ -  slide into from above or out of downwards
~ - vibrato
W - wide vibrato
tr - trill
TP - tremolo picking
T - tapping
S - slap
P - pop
< - fade in
^ - brush up
v - brush down
comments
We did not receive enough feedback on this tab! Please rate:
print report bad tab
1 2 3 4 5
I want to post or [tab]
guest
You may want to rate the tab now too:
select rating
Please do not post tabs as comments. Select "correction" instead!