Oops, an error
Loading. Please wait.

Girlie solo tab

439 views 12 this week
1 commentread comment
1 2 3 4 5
1 last vote to show rating
add to favorites
×
Save as Personal and add changes to this tab that will be seen only by you. Learn more ›
×
You can save this tab as Personal to edit and correct it or add notes. All changes will be seen only by you. Learn more »
launch autoscroll
font size
0
reset
how to read this tab
guitar tuner
edit
Autoscroll
slow
fast
+/-
esc
set tempo
stop
Played using a slider. High reverb and Chorus effect, can also use vibrato bar throghout. 
This is the solo from the studio verison not the live one. Timing might be off, you'll see
what I mean by listeining to the record.

[Solo] 2.01

e|-------|-15/19-13-|-------------|----------------|
B|-------|----------|-13/15-------|-13/15----------|
G|-13/15-|----------|-------13/16-|-------13/16-15-|
D|-------|----------|-------------|----------------|
A|-------|----------|-------------|----------------|
E|-------|----------|-------------|----------------|

e|-15/19-19-13-|-13/17-|-------------|-------------------------|
B|-------------|-------|-13/15-------|-13/15-13/15-------------|
G|-------------|-------|-------13/16-|-------------16-13-10/11-|
D|-------------|-------|-------------|-------------------------|
A|-------------|-------|-------------|-------------------------|
E|-------------|-------|-------------|-------------------------|

************************************

| /   Slide up
| \   Slide down
| ~   Vibrato

************************************

            
            
Suggest correction
Creating personal tab
Creating personal tab
You can edit any tab online and save it as your Personal.

You can edit, replace or remove any tab part or add personal notes – all changes will be seen only by you.

Personal tabs can be accessed anytime from any device, even offline.
Learn more »
Give kudos to tab author, rate the tab!
1 2 3 4 5
comments
print report bad tab
1 comment total.
0 reply
nbaker1251 52 Sep 25, 2017 11:51 PM

Yo so like it's just called a slide, and because this is the slide part you don't need say 4th fret for a capo, just move everything down 4 notes. Also, there's not chorus on this, there is a drive though. Otherwise perfect

guest
You may want to rate the tab now too:
select rating
Wanna post a correction for this tab? Suggest correction