Oops, an error
Loading. Please wait.

Mirage solo tab

178 views 9 this week
2 commentsread comments
1 2 3 4 5
3 more votes to show rating
add to favorites
×
Save as Personal and add changes to this tab that will be seen only by you. Learn more ›
×
You can save this tab as Personal to edit and correct it or add notes. All changes will be seen only by you. Learn more »
launch autoscroll
font size
0
reset
how to read this tab
guitar tuner
edit
Autoscroll
slow
fast
+/-
esc
set tempo
stop
Here's the tab for the lead guitarist chorus rift. Played in the fist position
of the Gmajor scale, at least I think so...
Might have missed bits out, but its faily straight forward to work out any 
missing bits from the scale position.

[Chorus]
e|----------------|-----|---------|-----|
B|----------------|-----|---------|-----|
G|----------------|-----|---------|-----|
D|-----0-2/5--2---|-----|-----2-0-|-----|
A|-3-2----------3-|-3-2-|-2-3-----|-3-0-|
E|----------------|-----|---------|-----|

e|----------------|-----|---------|-----|
B|----------------|-----|---------|-----|
G|----------------|-----|---------|-----|
D|-----0-2/5--2---|-----|-----2-0-|-----|
A|-3-2----------3-|-3-2-|-2-3-----|---3-|
E|----------------|-----|---------|-1---|

[Final chorus variation]
e|----------------|-----|---------|-----|
B|----------------|-----|---------|-----|
G|----------------|-----|---------|-----|
D|-----0-2/5--2---|-----|-----2-0-|-----|
A|-3-2----------3-|-3-2-|-2-3-----|-3-0-|
E|----------------|-----|---------|-----|

e|----------------|------------|
B|----------------|----3--1----|
G|--------------4-|--4------2--|
D|-----0-2/5--4---|----------2-|
A|-3-2------------|------------|
E|----------------|------------|

************************************
| /   Slide up
| \   Slide down
| ~   Vibrato
************************************
Suggest correction
Creating personal tab
Creating personal tab
You can edit any tab online and save it as your Personal.

You can edit, replace or remove any tab part or add personal notes – all changes will be seen only by you.

Personal tabs can be accessed anytime from any device, even offline.
Learn more »
Give kudos to tab author, rate the tab!
1 2 3 4 5
comments
print report bad tab
2 comments total.
0 reply
enricofox 18 May 27, 2017 06:05 AM, edited at 10:05 am

I only checked the first line (first part of the chorus) for now, but it looks a bit wrong.This:[Chorus]e|----------------|-----|---------|-----|B|----------------|-----|---------|-----|G|----------------|-----|---------|-----|D|-----0-2/5--2---|-----|-----2-0-|-----|A|-3-2----------3-|-3-2-|-2-3-----|-3-0-|E|----------------|-----|---------|-----|Sounds more like:[Chorus]e|----------------|-----|---------|-----|B|----------------|-----|---------|-----|G|----------------|-----|---------|-----|D|-----1/2-4--2---|-----|-----2-1-|-----|A|-3-2----------3-|-3-0-|-3-2-----|-3-2-|E|----------------|-----|---------|-----|

0 reply
enricofox 18 May 27, 2017 06:08 AM

Ok I messed up. It's

[Chorus]
e|----------------|-----|---------|-----|
B|----------------|-----|---------|-----|
G|----------------|-----|---------|-----|
D|-----1/2-4--2---|-----|-----2-1-|-----|
A|-3-2----------3-|-3-0-|-3-2-----|-3-2-|
E|----------------|-----|---------|-----|

guest
You may want to rate the tab now too:
select rating
Wanna post a correction for this tab? Suggest correction