Oops, an error
Loading. Please wait.

All My Days Tab

version 3
version 3

Whole song

73 views 24 this week
no commentswrite comment
1 2 3 4 5
3 more votes to show rating
add to favorites
launch autoscroll
font size
0
reset
how to read this tab
guitar tuner
Autoscroll
slow
fast
+/-
esc
set tempo
stop
Help us to improve Ultimate-Guitar.com Take our survey!
×
Author
Difficulty
Tuning
advanced
D A D G B E
===============================================================================
All My Days
Alexi Murdoch
Time Without Consequence

This tab is a transcription of the instruction video by 'Ethan's guitar lessons and 
music' on youtube
Links to videos:
 - Whole Song: https://www.youtube.com/watch?v=lUHyJ6vPjnc
 - Part 1:     https://www.youtube.com/watch?v=4wBYRctPZm4
 - Part 2:     https://www.youtube.com/watch?v=7kmWK0v2BR8
 - Part 3:     https://www.youtube.com/watch?v=w-6MclZW0_0
 - Part 4:     https://www.youtube.com/watch?v=n9ORA_js3Eo

Drop-D Tuning

E : pinky (anchor)
B : ring
G : middle
D : index
A : thumb
D : thumb

===============================================================================
[INTRO]
===============================================================================

   [4/4]
   D
   1 + 2 + 3 + 4 +   1 + 2 + 3 + 4 +   1 + 2 + 3 + 4 +   1 + 2 + 3 + 4 +
e|-----------------|-----------------|-----------------|------------------|
B|-----------------|-----------------|-----------------|------------------|
G|-----2-------2---|-----2-------2---|-----2-------2---|-----2-------2----|
D|-0h4-----0-------|-0h4-----0-------|-0h4-----0-------|-0h4-----0--------|
A|-----------------|-----------------|-----------------|------------------|
D|-----------------|-----------------|-------0---------|-------0-------0--|

                                                         [7/8]

   1 + 2 + 3 + 4 +   1 + 2 + 3 + 4 +   1 + 2 + 3 + 4 +   1 2 3 4 5 6 7
e|-----------------|-----------------|-----------------|----------------|
B|-----------------|-------------3---|-----------------|-------------3--|
G|-----2-------2---|-----2-----------|-----2-------2---|-----2----------|
D|-0h4-----0-------|-0h4-----0-------|-0h4-----0-------|-0h4-----0------|
A|-----------------|-----------------|-----------------|----------------|
D|-------0-------0-|-------0-------0-|-------0-------0-|-------0--------|

Main Riff

   [3/4]         [5/4]

   1 + 2 + 3 +   1 + 2 + 3 + 4 + 5 +
e|-------------|---------------------|
B|-------------|-------3-----------3-|
G|-------0---0-|h2---------2---------| x2
D|---0h4-------|---0-----------0-----|
A|-------------|---------------------|
D|-0-------0---|-----0---0---0---0---|

   [3/4]         [5/4]                 [4/4]

   1 + 2 + 3 +   1 + 2 + 3 + 4 + 5 +   1 + 2 + 3 + 4 +   1 + 2 + 3 + 4 +
e|-------------|---------------------|-----------------|------------------|
B|-------------|-------3-------------|-----------------|---------------3--|
G|-------0---0-|h2---------2---4-----|---0-------0-----|-------2----------|
D|---0h4-------|---0---------------2-|-------2-----2h4-|---0h4-----0------|
A|-------------|---------------------|-----------------|------------------|
D|-0-------0---|-----0---0---0---0---|-0---0---0-------|-0-------0---0----|


Main Riff x2

   [3/4]         [5/4]                 [4/4]             [3/4]

   1 + 2 + 3 +   1 + 2 + 3 + 4 + 5 +   1 + 2 + 3 + 4 +   1 + 2 + 3 +
e|-------------|---------------------|-----------------|--------------|
B|-------------|-------3-------------|-----------------|--------------|
G|-------0-----|-0h2-------2---4-----|---0-------0-----|-------2------|
D|---0h4-----0-|-------------------0-|h2-----2-----2h4-|---0h4-----0--|
A|-------------|---------------------|-----------------|--------------|
D|-0-------0---|-----0---0---0---0---|-----0---0-------|-0-------0----|

   1 + 2 + 3 +   1 + 2 + 3 +   1 + 2 + 3 +   1 + 2 + 3 +
e|-------------|-------------|-------------|--------------|
B|---3---------|---3---------|---3---------|---3----------|
G|-------2-----|-------2-----|-------2-----|-------2------|
D|-----------0-|-----------0-|-----------0-|-----------0--|
A|-------------|-------------|-------------|--------------|
D|-0---0---0---|-0---0---0---|-0---0---0---|-0---0---0----|

===============================================================================
[VERSE 1]
===============================================================================

   [4/4]
   D                 D/C#              G/B               D
   1 + 2 + 3 + 4 +   1 + 2 + 3 + 4 +   1 + 2 + 3 + 4 +   1 + 2 + 3 + 4 +
e|-----------------|-----------------|-----------------|------------------|
B|-----------------|-----------------|-----------------|-------3----------|
G|-------2~------2-|-------2~------0-|-------0~------0-|-----------2------|
D|-----------0-----|-----------0-----|-----------0-----|-----0---------0--|
A|-5~----------5---|-4~----------4---|-2~----------2---|------------------|
D|-----------------|-----------------|-----------------|-0-----------0----|

   G                                   D
   1 + 2 + 3 + 4 +   1 + 2 + 3 + 4 +   1 + 2 + 3 + 4 +   1 + 2 + 3 + 4 +
e|-----------------|-----------------|-----------------|------------------|
B|---------------3-|-----------3-----|-----------------|-------3----------|
G|-------0---------|---0-------------|-----------0---0-|h2---------2------|
D|---0-------0-----|-------0-------0-|-------0h4-------|---0-----------0--|
A|-----------------|-----------------|-----------------|------------------|
D|-5---5-------5---|-5---5---5---5---|-0---0-------0---|-----0---0---0----|

       REPEAT

   G                                   D
   1 + 2 + 3 + 4 +   1 + 2 + 3 + 4 +   1 + 2 + 3 + 4 +   1 + 2 + 3 + 4 +
e|-----------------|-----------------|-----------------|------------------|
B|---------------3-|-----------3-----|-----------------|-------3----------|
G|-------0---------|---0-----------0-|-----------0---0-|h2---------2------|
D|---0-------0-----|-------0---------|-------0h4-------|---0-----------0--| x2
A|-----------------|-----------------|-----------------|------------------|
D|-5---5-------5---|-5---5---5---5---|-0---0-------0---|-----0---0---0----|

                                                         [5/4]
   G9      G9/E      G9      G9/E      D
   1 + 2 + 3 + 4 +   1 + 2 + 3 + 4 +   1 + 2 + 3 + 4 +   1 + 2 + 3 + 4 + 5 +
e|-----------------|-----------------|-----------------|----------------------|
B|-----------------|-----------------|-----------------|-------3-----------3--|
G|-------2-------2-|-------2-------2-|-----------0---0-|h2---------2----------|
D|---0-------0-----|---0-------0-----|-------0h4-------|---0-----------0------|
A|-----------------|-----------------|-----------------|----------------------|
D|-5---5---2---2---|-5---5---2---2---|-0---0-------0---|-----0---0---0---0----|
           ^ Thumb

Main Riff x1

   [3/4]         [4/4]

   1 + 2 + 3 +   1 + 2 + 3 + 4 +
e|-------------|-----------------|
B|-------------|-------3---------|
G|-------0---0-|h2---------2-----|
D|---0h4-------|---0-----------0-|
A|-------------|-----------------|
D|-0-------0---|-----0---0---0---|

===============================================================================
[VERSE 2]
===============================================================================

(Same as verse 1 except for last 2 measures, then also added 2 additional measures)

   [3/4]         [5/4]

   1 + 2 + 3 +   1 + 2 + 3 + 4 + 5 +
e|-------------|---------------------|
B|-------------|-------3-----------3-|
G|-------0-----|-0h2-------2---------|
D|---0h4-----0-|---------------0-----|
A|-------------|---------------------|
D|-0-------0---|-----0---0---0---0---|

   [3/4]         [4/4]

   1 + 2 + 3 +   1 + 2 + 3 + 4 +
e|-------------|-----------------|
B|-------------|-------3---------|
G|-------0---0-|h2---------2-----|
D|---0h4-------|---0-----------0-|
A|-------------|-----------------|
D|-0-------0---|-----0---0---0---|

[VERSE 3]

   D                 D/C#              G/B               D
   1 + 2 + 3 + 4 +   1 + 2 + 3 + 4 +   1 + 2 + 3 + 4 +   1 + 2 + 3 + 4 +
e|-----------------|-----------------|-----------------|------------------|
B|-----------------|-----------------|-----------------|-------3----------|
G|-------2~------2-|-------2~------0-|-------0~------0-|-----------2------|
D|-----------0-----|-----------0-----|-----------0-----|-----0---------0--|
A|-5~----------5---|-4~----------4---|-2~----------2---|------------------|
D|-----------------|-----------------|-----------------|-0-----------0----|

   G                                   D
   1 + 2 + 3 + 4 +   1 + 2 + 3 + 4 +   1 + 2 + 3 + 4 +   1 + 2 + 3 + 4 +
e|-----------------|-----------------|-----------------|------------------|
B|---------------3-|-----------3-----|-----------------|-------3----------|
G|-------0---------|---0-------------|-----------0---0-|h2---------2------|
D|---0-------0-----|-------0-------0-|-------0h4-------|---0-----------0--|
A|-----------------|-----------------|-----------------|------------------|
D|-5---5-------5---|-5---5---5---5---|-0---0-------0---|-----0---0---0----|

       REPEAT

   G                                   D
   1 + 2 + 3 + 4 +   1 + 2 + 3 + 4 +   1 + 2 + 3 + 4 +   1 + 2 + 3 + 4 +
e|-----------------|-----------------|-----------------|------------------|
B|---------------3-|-----------3-----|-------3-------3-|-----------3------|
G|-------0---------|---0-----------0-|-----------------|---2-----------2--|
D|---0-------0-----|-------0---------|---0-------0-----|-------0----------|
A|-----------------|-----------------|-----------------|------------------|
D|-5---5-------5---|-5---5---5---5---|-0---0-------0---|-0---0---0---0----|

   G                                   D
   1 + 2 + 3 + 4 +   1 + 2 + 3 + 4 +   1 + 2 + 3 + 4 +   1 + 2 + 3 + 4 +
e|-----------------|-----------------|-----------------|------------------|
B|---------------3-|-----------3-----|-------3---------|---3-----------3--|
G|-------0---------|---0-----------0-|-----------2-----|-------2----------|
D|---0-------0-----|-------0---------|---0-----------0-|-----------0------|
A|-----------------|-----------------|-----------------|------------------|
D|-5---5-------5---|-5---5---5---5---|-0---0-------0---|-0---0---0---0----|

   G                                   D
   1 + 2 + 3 + 4 +   1 + 2 + 3 + 4 +   1 + 2 + 3 + 4 +   1 + 2 + 3 + 4 +
e|-----------------|-----------------|-----------------|------------------|
B|---------------3-|-----------3-----|-----------------|-------3----------|
G|-------0---------|---0-------------|-----------0---0-|h2---------2------|
D|---0-------0-----|-------0-------0-|-------0h4-------|---0-----------0--|
A|-----------------|-----------------|-----------------|------------------|
D|-5---5-------5---|-5---5---5---5---|-0---0-------0---|-----0---0---0----|

   G9      G9/E      G9      G9/E
   1 + 2 + 3 + 4 +   1 + 2 + 3 + 4 +
e|-----------------|------------------|
B|-----------------|------------------|
G|-------2-------2-|-------2-------2--|
D|---0-------0-----|---0-------0------|
A|-----------------|------------------|
D|-5---5---2---2---|-5---5---2---2----|

===============================================================================
[INSTRUMENTAL]
===============================================================================

   [4/4]             [5/4]                 [3/4]         [5/4]
   D
   1 + 2 + 3 + 4 +   1 + 2 + 3 + 4 + 5 +   1 + 2 + 3 +   1 + 2 + 3 + 4 + 5 +
e|-----------------|---------------------|-------------|----------------------|
B|-----------------|-------3-------------|-------------|-------3--------------|
G|-----------0---0-|h2---------2---------|-------0---0-|h2---------2----------|
D|-------0h4-------|---0-----------0-----|---0h4-------|---0-----------0------|
A|-----------------|---------------------|-------------|----------------------|
D|-0---0-------0---|-----0---0---0---0---|-0-------0---|-----0---0---0---0----|

   [3/4]         [5/4]                 [3/4]         [5/4]

   1 + 2 + 3 +   1 + 2 + 3 + 4 + 5 +   1 + 2 + 3 +   1 + 2 + 3 + 4 + 5 +
e|-------------|---------------------|-------------|----------------------|
B|-------------|-------3-------------|-------------|-------3--------------|
G|-------0---0-|h2---------2---------|-------0---0-|h2---------2---4------|
D|---0h4-------|---0-----------0-----|---0h4-------|---0---------------2--|
A|-------------|---------------------|-------------|----------------------|
D|-0-------0---|-----0---0---0---0---|-0-------0---|-----0---0---0---0----|

   [4/4]                               [3/4]         [5/4]
   D
   1 + 2 + 3 + 4 +   1 + 2 + 3 + 4 +   1 + 2 + 3 +   1 + 2 + 3 + 4 + 5 +
e|-----------------|-----------------|-------------|----------------------|
B|-----------------|---------------3-|-------------|---------------3------|
G|---0-------0-----|-------2---------|-----0-----0-|h2-----4p2---------2--|
D|-------2-----2h4-|---0h4-----0-----|---0---------|---0-------0----------|
A|-----------------|-----------------|-------------|----------------------|
D|-0---0---0-------|-0-------0---0---|-0-------0---|-----0-------0---0----|

   [3/4]         [5/4]                 [3/4]         [5/4]

   1 + 2 + 3 +   1 + 2 + 3 + 4 + 5 +   1 + 2 + 3 +   1 + 2 + 3 + 4 + 5 +
e|-------------|---------------------|-------------|----------------------|
B|-------------|-------3-----------3-|-------------|-------3--------------|
G|-------0---0-|h2---------2---------|-------0---0-|h2---------2---4------|
D|---0h4-------|---0-----------0-----|---0h4-------|---0---------------2--|
A|-------------|---------------------|-------------|----------------------|
D|-0-------0---|-----0---0---0---0---|-0-------0---|-----0---0---0---0----|

   [4/4]             [3/4]                       [5/4]
   D
   1 + 2 + 3 + 4 +   1 + 2 + 3 +   1 + 2 + 3 +   1 + 2 + 3 + 4 + 5 +
e|-----------------|-------------|-------------|----------------------|
B|-----------------|-------------|---3---------|---3-----------3------|
G|---0-------0-----|-------2-----|-------2-----|-------2-----------2--|
D|-------2-----2h4-|---0h4-----0-|-----------0-|-----------0----------|
A|-----------------|-------------|-------------|----------------------|
D|-0---0---0-------|-0-------0---|-0---0---0---|-0---0---0---0---0----|

   [5/4]                 [3/4]

   1 + 2 + 3 + 4 + 5 +   1 + 2 + 3 +   1 + 2 + 3 +   1 + 2 + 3 +
e|---------------------|-------------|-------------|--------------|
B|---------------------|-------------|---3---------|---3----------|
G|-----0-------0-----0-|-------2-----|-------2-----|-------2------|
D|-------0-------0h2---|---0-------0-|-----------0-|-----------0--|
A|-0h2-----2h4---------|-------------|-------------|--------------|
D|---------------------|-0---0---0---|-0---0---0---|-0---0---0----|

   [5/4]                 [3/4]

   1 + 2 + 3 + 4 + 5 +   1 + 2 + 3 +   1 + 2 + 3 +   1 + 2 + 3 +
e|---------------------|-------------|-------------|--------------|
B|---------------------|-------------|---3---------|--------------|
G|-----0-------0-----0-|-------2-----|-------2-----|------o/------|
D|-------0-------0h2---|---0-------0-|-----------0-|--{5}-/o------|
A|-0h2-----2h4---------|-------------|-------------|--------------|
D|---------------------|-0---0---0---|-0---0---0---|--------------|

===============================================================================
[VERSE 4]
===============================================================================

   [4/4]
   D                 D/C#              G/B               D
   1 + 2 + 3 + 4 +   1 + 2 + 3 + 4 +   1 + 2 + 3 + 4 +   1 + 2 + 3 + 4 +
e|-----------------|-----------------|-----------------|------------------|
B|-----------------|-----------------|-----------------|-------3----------|
G|-------2~------2-|-------2~------0-|-------0~------0-|-----------2------|
D|-----------0-----|-----------0-----|-----------0-----|-----0---------0--|
A|-5~----------5---|-4~----------4---|-2~----------2---|------------------|
D|-----------------|-----------------|-----------------|-0-----------0----|

   G                                   D
   1 + 2 + 3 + 4 +   1 + 2 + 3 + 4 +   1 + 2 + 3 + 4 +   1 + 2 + 3 + 4 +
e|-----------------|-----------------|-----------------|------------------|
B|---------------3-|-----------3-----|-----------------|-------3----------|
G|-------0---------|---0-------------|-----------0---0-|h2---------2------|
D|---0-------0-----|-------0-------0-|-------0h4-------|---0-----------0--|
A|-----------------|-----------------|-----------------|------------------|
D|-5---5-------5---|-5---5---5---5---|-0---0-------0---|-----0---0---0----|

REPEAT

   G                                   D
   1 + 2 + 3 + 4 +   1 + 2 + 3 + 4 +   1 + 2 + 3 + 4 +   1 + 2 + 3 + 4 +
e|-----------------|-----------------|-----------------|------------------|
B|---------------3-|-----------3-----|-------3---------|---3-----------3--|
G|-------0---------|---0-------------|-----------2-----|-------2----------|
D|---0-------0-----|-------0-------0-|---0-----------0-|-----------0------|
A|-----------------|-----------------|-----------------|------------------|
D|-5---5-------5---|-5---5---5---5---|-0---0-------0---|-0---0---0---0----|

   G                                   D
   1 + 2 + 3 + 4 +   1 + 2 + 3 + 4 +   1 + 2 + 3 + 4 +   1 + 2 + 3 + 4 +
e|-----------------|-----------------|-----------------|------------------|
B|---------------3-|-----------3-----|-------3---------|---3--------------|
G|-------0---------|---0-------------|-----------2-----|-------2-------2--|
D|---0-------0-----|-------0-------0-|---0-----------0-|-----------0------|
A|-----------------|-----------------|-----------------|------------------|
D|-5---5-------5---|-5---5---5---5---|-0---0-------0---|-0---0---0---0----|


   G                                   D
   1 + 2 + 3 + 4 +   1 + 2 + 3 + 4 +   1 + 2 + 3 + 4 +   1 + 2 + 3 + 4 +
e|-----------------|-----------------|-----------------|------------------|
B|---------------3-|-----------3-----|-----------------|-------3----------|
G|-------0---------|---0-------------|-----------0---0-|h2---------2------|
D|---0-------0-----|-------0-------0-|-------0h4-------|---0-----------0--|
A|-----------------|-----------------|-----------------|------------------|
D|-5---5-------5---|-5---5---5---5---|-0---0-------0---|-----0---0---0----|

   G9      G9/E      G9      G9/E      D
   1 + 2 + 3 + 4 +   1 + 2 + 3 + 4 +   1 + 2 + 3 + 4 +   1 + 2 + 3 + 4 +
e|-----------------|-----------------|-----------------|------------------|
B|-----------------|-----------------|-----------------|-------3----------|
G|-------2-------2-|-------2-------2-|-----------0---0-|h2---------2------|
D|---0-------0-----|---0-------0-----|-------0h4-------|---0-----------0--|
A|-----------------|-----------------|-----------------|------------------|
D|-5---5---2---2---|-5---5---2---2---|-0---0-------0---|-----0---0---0----|

                                                         [5/4]
   G9      G9/E      G9      G9/E      D
   1 + 2 + 3 + 4 +   1 + 2 + 3 + 4 +   1 + 2 + 3 + 4 +   1 + 2 + 3 + 4 + 5 +
e|-----------------|-----------------|-----------------|----------------------|
B|-----------------|-----------------|-----------------|-------3-----------3--|
G|-------2-------2-|-------2-------2-|-----------0---0-|h2---------2----------|
D|---0-------0-----|---0-------0-----|-------0h4-------|---0-----------0------|
A|-----------------|-----------------|-----------------|----------------------|
D|-5---5---2---2---|-5---5---2---2---|-0---0-------0---|-----0---0---0---0----|

   [3/4]         [4/4]
                                   Em9
   1 + 2 + 3 +   1 + 2 + 3 + 4 +   1 + 2 + 3 + 4 +   1 + 2 + 3 + 4 +
e|-------------|-----------------|-----------------|------------------|
B|-------------|-------3---------|-----------------|------------------|
G|-------0---0-|h2---------2---0-|-------0---------|---0-----------0--|
D|---0h4-------|---0-------------|-----------4-----|-------4----------|
A|-------------|-----------------|---2-----------2-|-----------2------|
D|-0-------0---|-----0---0---0---|-2---2---2---2---|-2---2---2---2----|

   D                                   Em9
   1 + 2 + 3 + 4 +   1 + 2 + 3 + 4 +   1 + 2 + 3 + 4 +   1 + 2 + 3 + 4 +
e|-----------------|-----------------|-----------------|------------------|
B|-------3---------|---3-----------0-|-----------------|------------------|
G|-----------2-----|-------2---------|-------0---------|---0-----------0--|
D|---0-----------0-|-----------0-----|-----------4-----|-------4----------|
A|-----------------|-----------------|---2-----------2-|-----------2------|
D|-0---0---0---0---|-0---0---0---0---|-2---2---2---2---|-2---2---2---2----|

   D                                   Em9
   1 + 2 + 3 + 4 +   1 + 2 + 3 + 4 +   1 + 2 + 3 + 4 +   1 + 2 + 3 + 4 +
e|-----------------|-----------------|-----------------|------------------|
B|-------3---------|---3-------------|-----------------|------------------|
G|-----------2-----|-------2-------0-|-------0---------|---0-----------0--|
D|---0-----------0-|-----------0-----|-----------4-----|-------4----------|
A|-----------------|-----------------|---2-----------2-|-----------2------|
D|-0---0---0---0---|-0---0---0---0---|-2---2---2---2---|-2---2---2---2----|

   D                                   Em9
   1 + 2 + 3 + 4 +   1 + 2 + 3 + 4 +   1 + 2 + 3 + 4 +
e|-----------------|-----------------|------------------|
B|-------3---------|---3-------------|------------------|
G|-----------2-----|-------2-------0-|-------0----------|
D|---0-----------0-|-----------0-----|-----------4------|
A|-----------------|-----------------|---2-----------2--|
D|-0---0---0---0---|-0---0---0---0---|-2---2---2---2----|

   [3/4]               [?]     [4/4]
                               D
   1 + 2 + 3 +   1 + 2 + 3 +   1 + 2 + 3 + 4 +   1 + 2 + 3 + 4 +
e|-------------|-------------|-----------------|------------------|
B|-------------|-------------|-----------------|------------------|
G|---0---------|------o/-----|-------2-------2~|-------2-------2~-|
D|-------4-----|------/o-----|---0-------0-----|---0-------0------|
A|-----------2-|-------------|-----------------|------------------|
D|-2---2---2---|-------------|-0---0-------0---|-----0-------0----|

   1 + 2 + 3 + 4 +
e|-----------------||
B|-----------------||
G|-------2---------||
D|---0-------0-----||
A|-----------------||
D|-0---0-------0~--||

************************************************************************

LEGEND:

| h  hammer-on
| ~  vibrato

************************************************************************

LYRICS:

Well I have been searching all of my days
All of my days
Many a road, you know
I've been walking on
All of my days
And I've been trying to find
What's been in my mind
As the days keep turning into night

Well I have been quietly standing in the shade
All of my days
Watch the sky breaking on the promise that we made
All of this rain
And I've been trying to find
What's been in my mind
As the days keep turning into night

Well many a night I found myself with no friends standing near
All of my days
I cried aloud
I shook my hands
What am I doing here
All of these days
For I look around me
And my eyes confound me
And it's just too bright
As the days keep turning into night

Now I see clearly
It's you I'm looking for
All of my days
Soon I'll smile
I know I'll feel this loneliness no more
All of my days
For I look around me
And it seems you've found me
And it's coming into sight
As the days keep turning into night
As the days keep turning into night
And even breathing feels all right
Yes, even breathing feels all right
Now even breathing feels all right
Yes, even breathing
Feels all right



************************************

| h  Hammer-on
| ~  Vibrato
| p  Pull-off 

************************************
Suggest correction
Give kudos to tab author, rate the tab!
1 2 3 4 5
comments
print report bad tab
guest
You may want to rate the tab now too:
select rating
Wanna post a correction for this tab? Suggest correction