Oops, an error
Loading. Please wait.

Breathe tab

version 2
version 2

Whole song

8,680 views 1 this week
1 commentread comment
1 2 3 4 5
x 3
add to favorites
×
Save as Personal and add changes to this tab that will be seen only by you. Learn more ›
×
You can save this tab as Personal to edit and correct it or add notes. All changes will be seen only by you. Learn more »
launch autoscroll
font size
0
reset
how to read this tab
guitar tuner
edit
Autoscroll
slow
fast
+/-
esc
set tempo
stop
Difficulty
intermediate
Whole song is palm muted but you should change the intensity of muting. 
It´s imposible to tab it, so do it how you feel. Also I´ve found useful 
to play it by "side" of the pick. It have more gently sound i think... 

Intro & Verses:

   PM -x-x-x-x-x-x-x-x-x-x-x-x-x-x-x-x-
e--0----------5p0-0-0-5p0-0-0-0-5p0-5p0----|
B--1---1s3----3---3---3-----3---3---3------|
G--0h2-0-0----0-------0---------0---0------|
D--0h2-2s4---------------------------------|
A--0---0-0---------------------------------|
E------------------------------------------|
 In the quiet of the shadow...

   PM -x-x-x-x-x-x-x-x-x-x-x-
e--0---------------------------------------|
B--1--1----1--1-1-1-1-1-1-1-1--------------|
G--0h22----2--2-0-0h2-2-0h2-2--------------|
D--0h22----3--3-3-3-3-3-3-3-3--------------|
A--0-------3--------3---3---3--------------|
E------------------------------------------|
 In the corner of a room...

 Darkness moves upon you
 Like a cloud across the moon

 You're a-wearing all the silence
 Of a constant that will turn
 Like the windmill left deserted
 Or the sun forever burn

Chorus:
   
   PM -x-x-x-x-x-x-x-x-x-x-x-
e-----------------------------------------|
B--1-1--1-1-1----1-1--1-1-1---------------|
G--2x2--0-0-0----2-2--0-0-0---------------|
D--2x2--0x0-0----3x3--2-2-2---------------|
A--0-0--x-x-x----3-3--3-3-3---------------|
E-------3-3-3-----------------------------|
 So don't forget to breathe

 Don't forget to breathe
 Your whole life is here
 No eleventh hour reprieve
 So don't forget to breathe

   x            x 
 Keep your head above water
   x            x
 But don't forget to breathe

Verse:
And all the suffering that you've witnessed
And the hand prints on the wall
They remind you how it's endless
How endlessly you fall

And the answer that you're seeking
For the question that you found
Drives you further to confusion
As you lose your sense of ground

            
            
Suggest correction
Creating personal tab
Creating personal tab
You can edit any tab online and save it as your Personal.

You can edit, replace or remove any tab part or add personal notes – all changes will be seen only by you.

Personal tabs can be accessed anytime from any device, even offline.
Learn more »
Give kudos to tab author, rate the tab!
1 2 3 4 5
comments
print report bad tab
1 comment total.
0 reply
Devmarta 75 Nov 28, 2014 12:09 AM

The chorus chords are actually played like this:

e-----------------------------------------|
B--1-1--0-0-0----1-1--3-3-3---------------|
G--2x2--0-0-0----2-2--5-5-5---------------|
D--2x2--0x0-0----3x3--5-5-5---------------|
A--0-0--2-2-2----3-3--3-3-3---------------|
E-------3-3-3---------3-3-3---------------|

Otherwise the tab looks pretty good. But you don't have the chord for

" Keep your head above water
But don't forget to breathe"

I think that part is a normal E.

guest
Wanna post a correction for this tab? Suggest correction