Oops, an error
Loading. Please wait.

Accidents Bass Tab

version 1
version 1

Whole song

Interactive

6,327 views 6 this week
3 commentsread comments
1 2 3 4 5
please rate
add to favorites
launch autoscroll
font size
0
reset
guitar tuner
Autoscroll
slow
fast
+/-
esc
set tempo
stop
Help us to improve Ultimate-Guitar.com Take our survey!
×
Author
Oldreich87 1,154
Song-Accidents
Artist-Alexisonfire
Album-Watch Out!
Transcribed by-Oldreich87

Intro 
Gb|--------------------------|
Db|--------------------------|
Ab|--------------------------|
Db|-4~----0~----4~----0~-----|
   
Gb|-----------------------------------------------|
Db|-----------------------------------------------|
Ab|----------------------------------------77-77--|
Db|-44444444-00000000-44444444-00000000-00--------|


Verse - (0:42) 		   *1st ending
Gb|--------------------|    |--------------------------------|----|------|
Db|--------------------| x2 |-------------77----77----77-----|----|------| x2
Ab|--------------------|    |----------55----55----55----55--|----|-44-0-|
Db|-44444444-00000000--|    |-44444444-----------------------|-22-|------|
								   *2nd ending

Pre-chorus - (1:18) 
Gb|--------------------------------------------|
Db|--------------------------------------------|
Ab|-222222-x4-555555--222222-x4-555555-777777--|
Db|--------------------------------------------|


Chorus 
Gb|-------------------------- |    |-------------------------|
Db|---------------------------| x2 |-------------------------|
Ab|----------242024-----------|    |-------------------------|
Db|-44444444--------00000000--|    |-4~----0~----4~----0~----|


Bass solo Riff 1
Gb|---------------------------------|
Db|-7p6-------------7p6-------------| x8
Ab|-----7p0-----7h9-----7p0-----7h9-|
Db|---------7h9-------------7h9-----|

(Riff 2)
Gb|-------------------------|
Db|-7--7p6h7p6--------------| x8
Ab|------------4--------7h9-|
Db|------------------7h9----|

(Riff 3) - (2:4   "Lets redefine, lets redefine..                        
Gb|----------------------------------------------------------------------|
Db|-7--7p6h7p6-------7--7p6h7p6-------7--7p6h7p6-------7--7p6h7p6--------| 
Ab|------------4----------------4----------------4----------------4------|
Db|---------------4~---------------4~---------------0~---------------0~--|

Gb|--------------------------------------------------------|
Db|-7--7p6h7p6-------7--7p6h7p6-------7--7p6h7p6-----------| 
Ab|------------4----------------4----------------4------.--|
Db|---------------4~---------------4~---------------0~--0--|


Pre-chorus 
Gb|--------------------------------------------|
Db|--------------------------------------------|
Ab|-222222-x4-555555--222222-x4-555555-777777--|
Db|--------------------------------------------|

Chorus 
Gb|-------------------------- |    |----|
Db|---------------------------| x4 |----|
Ab|----------242024-----------|    |----|
Db|-44444444--------00000000--|    |-0~-|

Suggest correction new What's this?
You can suggest a correction to this tab. Community and Mods will review your correction and vote to approve or reject it.
comments
We did not receive enough feedback on this tab! Please rate:
print report bad tab
1 2 3 4 5
3 comments total.
0 reply
hoshbrown41 170 wrote on March 15 2009, 05:50 pm

thank you for this. i had figured it out except for the breadown, and unlike the other tabbers for this recognized what scale it was in (and that it was a half step down and drop d) just couldnt figure out what he actually played. im not sure if this is PERFECT but its damn close: *****

0 reply
hoshbrown41 170 wrote on March 15 2009, 05:52 pm

^ just played along w it, and the breakdown lines up quite well so maybe my ear was just off :)

0 reply
Oldreich87 1,154 wrote on May 7 2009, 10:34 am

Thank You

guest
You may want to rate the tab now too:
select rating
Please do not post tabs as comments. Select "correction" instead!