Oops, an error
Loading. Please wait.

Accidents Tab

version 2
version 2

Whole song

Interactive

3,101 views 3 this week
no commentswrite comment
1 2 3 4 5
accurate
x 4
add to favorites
launch autoscroll
font size
0
reset
how to read this tab
guitar tuner
Tab Pro tools
  • play this tab
  • loop segment
  • change instrument
  • show fretboard
  • metronome
×
Best way to learn
"Accidents"
Autoscroll
slow
fast
+/-
esc
set tempo
stop
Difficulty
novice
This is My First Tab, I hope you all like it.
ALEXISONFIRE!!!!
intro guitar 1

|----------------------------------------------------------------|
|-------------------------------------------------10-9-----------|
|-4/6\4---4/6------------------------------------------9/11------|
|-x/x\x---x/x--4---------0--------4-------0----------------------|
|-2/4\2-0-2/4--4---------0--------4-------0----------------------|
|--------------4---------0--------4-------0----------------------|

intro guitar 2

||--------------------------------------||----------------------------------|
||--------------------------------------||----------------------------------|
||o------------------------------------o||----------------------------------|
||o--6h7p6---6---6h7p6---6---6h7p6---6-o||----9--7p6------7p6-----7p6-------|
||---------7---7-------7---7-------7----||-/9--------7p0------7p0-----7p0---|
||--------------------------------------||----------------------------------|

|-----------------------------||---------|
|-----------------------------||---------|
|----------------------------o||---------|
|-7p6------7p6-----7p6-------o||-7-6-----|
|-----7p0------7p0-----7p0----||-----7/9-|
|-----------------------------||---------|

intro part 2

guitar 1

|-----------------------------------------------------|
|-----------------------------------------------------|
|---------4/6-6-4/9-4/6-6-4/9-4/6-6-4/9-4/6-6-9-9/11--|
|-4-------x/x-x-x/x-x/x-x-x/x-x/x-x-x/x-x/x-x-x-x/x---|
|-4-strum-2/4-4-2/7-2/4-4-2/7-2/4-4-2/7-2/4-4-7-7/9---|
|-4---------------------------------------------------|

guitar 2

|------------------------------|
|------------------------------|
|-----------14-----------------|
|-4---------x-strum------------|
|-4-strum---12-----------------|
|-4----------------------------|

verse

guitar 1

(palm mute)
|--------------------------------------------------------|
|--------------------------------------------------------|
|--------------------------------------------------------|
|-4-------0-------x2--4---------0-0----0-0----0-0----0-0-|
|-4-strum-0-strum-----4-strum---0-0----0-0----0-0----0-0-|
|-4-------0-----------4---------0-0----0-0----0-0----0-0-|

guitar 2
|-----------------------------------------------------------------------|
|-----------------------------------------------------------------------|
|-------------------------------------------------------14-14----14-14--|
|---2--2--4--------------------7-6------------4---------x--x-----x--x---|
|------------2p0h2p0h2p0--/9-------7-----/9---4--strum--12-12----12-12--|
|---------------------------------------------4-------------------------|

|-------------------|
|-------------------|
|--14-14----14-14---|
|--x--x-----x--x----|
|--12-12----12-12---|
|-------------------|

pre-chorus

guitar 1
strum all chords
|----------------|
|----------------|
|----------------|
|-4--7--4--7--9--|
|-2--5--2--5--7--|
|----------------|

guitar 2

|---------------------|
|-10-9----------------|
|------9---------9-11-|
|--------11-9-11------|
|---------------------|
|---------------------|

chorus

both guitars

|---------------------------------------------------|
|---------------------------------------------------|
|--------------------------------14-13-9---14-13-9--|
|-4-------6--------------------0-x--x--x-0-x--x--x--|
|-4-strum-4-strum-/4-2p0h2h4---0-12-11-7-0-12-11-7--|
|-4-------4--------------------0---------0----------|

BreakDown

Guitar 1

|----------------------------|
|----------------------------|
|----------------------------|
|-4~----0~-------------------|x2
|-4~----0~-------------------|
|-4~----0~-------------------|


Guitar2
Listen to the Song for the Timing
||--------------------------------------| |----------------------------------|
||--------------------------------------| |----------------------------------|
||o------------------------------------o| |----------------------------------|
||o--6h7p6---6---6h7p6---6---6h7p6---6-o| |----9--7p6------7p6-----7p6-------|
||---------7---7-------7---7-------7----| |-/9--------7p0------7p0-----7p0---|
||--------------------------------------| |----------------------------------|

|-----------------------------||---------|
|-----------------------------||---------|
|----------------------------o||---------|
|-7p6------7p6-----7p6-------o||-7-6-----|
|-----7p0------7p0-----7p0----||-----7/9-|
|-----------------------------||---------|

{Bass Solo}

Well the Dallas n Wade don't really play anything during this but this is what I play, 
try it out, and make sure you listen to the song to get the rhythm.

guitar 2

|---------------------|
|-10-9----------------|
|------9---------9-11-|
|--------11-9-11------|
|---------------------|
|---------------------|

Outro Solo
listen for timing
Guitar 1
|---------------------|
|---------------------|
|---------------------|
|-4~-----  0~---------|x2
|-4~--x2-  0~-x2------|
|-4~-----  0~---------|

pre-chorus

Guitar 1
Listen for Rhythm
|----------------|
|----------------|
|----------------|
|-4--7--4--7--9--|
|-2--5--2--5--7--|
|----------------|

Guitar 2

|---------------------|
|-10-9----------------|
|------9---------9-11-|
|--------11-9-11------|
|---------------------|
|---------------------|

Chorus

Both Guitars

|---------------------------------------------------|
|---------------------------------------------------|
|--------------------------------14-13-9---14-13-9--|
|-4-------6--------------------0-x--x--x-0-x--x--x--|
|-4-strum-4-strum-/4-2p0h2h4---0-12-11-7-0-12-11-7--|
|-4-------4--------------------0---------0----------|

That is pretty much it, have fun, any question or comments be free
to send me a email at From_Fear_Throught_the_Eyes_of_Madness@hotmail.com
comments
print report bad tab
I want to post or [tab]
guest
You may want to rate the tab now too:
select rating
Please do not post tabs as comments. Select "correction" instead!