Oops, an error
Loading. Please wait.

Adelleda Bass Tab

version 1
version 1

Whole song

Interactive

347 views 1 this week
no commentswrite comment
1 2 3 4 5
3 more votes to show rating
add to favorites
launch autoscroll
font size
0
reset
guitar tuner
Autoscroll
slow
fast
+/-
esc
set tempo
stop
Help us to improve Ultimate-Guitar.com Take our survey!
×
Author
Difficulty
Tuning
intermediate
D# G# C# F# A# D#
First tab in a while. Took some time to figure out the little bass fills, this 
isn't 100% correct, but it hopefully gives a basic idea with room to improve. 

half step

(0:00-0:23) nothing

(0:23-1:09)
Gb-7~~9~~11~~9~~/16~~14~~\11~~12-11--7~~9~~11~~9~~/16~~14~~\11~~12-11---7~~|
Db-5~~------------------------0~~--0-5~~------------------------0~~---0-5~~|
Ab-------------------------------------------------------------------------|
Eb-------------------------------------------------------------------------|


(1:09-1:35)                                       End with this fill
Gb-7~~xx7~x7~~7~~~/11\9------------------------|-7-9-11-9-7-9-7----7~~~7~~~|
Db-5~~xx5~x5~~5~~~-----------------------------|----------------7-5-5~5~~~~|
Ab----------------------2~~xx2~x2~~~2~~xx2~x2~~|---------------------------|
Eb---------------------------------------------|---------------------------|


(1:45-2:09)
Gb-7~~xx7~x7~~7~~~/11\9------------------------|-7-7-7~~|
Db-5~~xx5~x5~~5~~~-----------------------------|-5-5-5~~|
Ab----------------------2~~xx2~x2~~~2~~xx2~x2~~|--------|
Eb---------------------------------------------|--------|


(2:10-2:27)    Not too sure about this part, its hard to hear
Gb-------11-----9----------11-14-11-12-11---12-11--12-11--12-11--9-11--|
Db-9-9-9----9-9---12-12-12----------------12-----12-----12-----12----12|
Ab---------------------------------------------------------------------|
Eb---------------------------------------------------------------------|


(2:27-2:33)
Gb-------11-----9----------11-14-11---7-7-7-9-9-|
Db-9-9-9----9-9---12-12-12------------5-5-5-7-7-|
Ab----------------------------------------------|
Eb----------------------------------------------|

 
(2:33-2:51)                                      end on last
Gb----------------------------------------------|-11-11-9-11-9-7-|
Db----------------------------------------------|-9--9--7-9--7-5-|
Ab-22222222222----------------------------------|----------------|
Eb------------333333333300000000003333333333333-|----------------|


(2:51-3:20)                                         
Gb-7~~xx7~x7~~7~~~/11\9--------------------7-9-11-9-7-9-7----7~~~7~~~|
Db-5~~xx5~x5~~5~~~----------------------------------------7-5-5~5~~~~|
Ab----------------------2~~xx2~x2~~~2~~xx2---------------------------|
Eb-------------------------------------------------------------------|

ending with
Gb-11-11-9-11-|
Db-9--9--7-9--|
Ab------------|
Eb------------|


(3:22-3:42)          some little fills in there, you can hear them
Gb-11-11-11-7-7-7-11-11-11-7-7-7-11-11-11-14~~~11-11-11-7-7-7---|
Db-9--9--9--5-5-5-9--9--9--5-5-5-9--9--9--12~~~9--9--9--5-5-5---|
Ab--------------------------------------------------------------|
Eb--------------------------------------------------------------|


(3:42- to the end)
Gb-7~~9~~11~~9~~/16~~14~~\11~~12-11--7~~9~~11~~9~~/16~~14~~\11~~12-11---7~~|
Db-5~~------------------------0~~--0-5~~------------------------0~~---0-5~~|
Ab-------------------------------------------------------------------------|
Eb-------------------------------------------------------------------------|
Suggest correction
Give kudos to tab author, rate the tab!
1 2 3 4 5
comments
print report bad tab
guest
You may want to rate the tab now too:
select rating
Wanna post a correction for this tab? Suggest correction