Oops, an error
Loading. Please wait.

Boiled Frogs Tab

version 1
version 1

Acoustic

Whole song

Interactive

23,461 views 30 this week
3 commentsread comments
1 2 3 4 5
excellent!
x 8
add to favorites
launch autoscroll
font size
0
reset
how to read this tab
guitar tuner
Autoscroll
slow
fast
+/-
esc
set tempo
stop
Help us to improve Ultimate-Guitar.com Take our survey!
×
Author
Difficulty
Tuning
novice
D A D G B E
-------------------------------------------------------------------------------
                             Boiled Frogs - Alexisonfire or City and Colour
-------------------------------------------------------------------------------
Tabbed by: LightningLogan
Email: lightning.logan@hotmail.com

I'm just givin you guys the chords, the timing is harder to tab out so just listen for 
you enjoy. Please rate 5 as this is my first tab. This song is only available on iTunes 
3rd party websites.


Tuning: Drop D; DADGBe

Intro
e|---x---x---x---x---|
B|---x---x---x---x---|
G|---7---6---x---x---|
D|---0---0---7---0---|
A|---9---9---9---9---|
D|---9---9---9---9---|


Verse 1
e|---x---x---x---|
B|---x---x---5---|
G|---7---4---7---|
D|---0---4---0---|
A|---9---5---0---|
D|---9---5---x---|
Old man sits at his desk...

Pre-Chorus 1
e|---x---x---x---x---x---|---x---|
B|---x---5---8---7---5---|---x---|
G|---7---7---7---6---4---|---6---|(play after 2nd and 4th time)
D|---0---0---5---4---2---|---0---|
A|---9---0---5---4---2---|---7---|
D|---9---x---5---4---2---|---7---|
I'm always wishing...

Chorus 1
e|---x---------x---x---x---|---x---x---x---|
B|---x---------x---x---x---|---x---x---x---|
G|---4--pause--7---4---7---|---6---x---x---| (leads into Verse 2)
D|---4---------0---4---0---|---0---7---0---|
A|---5---------9---5---9---|---9---9---9---|
D|---5---------9---5---9---|---9---9---9---|
Wait up, I'm not sleeping...

Verse 2
e|---x---x---x---|
B|---x---x---5---|
G|---7---4---7---|
D|---0---4---0---|
A|---9---5---0---|
D|---9---5---x---|
Poor little tin man...

Pre-Chorus 2
e|---x---x---x---x---x---|---x---|
B|---x---5---8---7---5---|---x---|
G|---7---7---7---6---4---|---6---|(play after 2nd and 4th time)
D|---0---0---5---4---2---|---0---|
A|---9---0---5---4---2---|---7---|
D|---9---x---5---4---2---|---7---|
My youth is slipping...

Chorus 2
e|---x---------x---x---x---|---x---x---x---|
B|---x---------x---x---x---|---x---x---x---|
G|---4--pause--7---4---7---|---6---x---x---| (played after 2nd time)
D|---4---------0---4---0---|---0---7---0---|
A|---5---------9---5---9---|---9---9---9---|
D|---5---------9---5---9---|---9---9---9---|
Wait up, I'm not sleeping...


Outro
e|---x---x---x---|
B|---x---x---x---|
G|---4---6---7---|
D|---4---0---0---|
A|---5---7---9---|
D|---5---7---9---|
Between the light and shallow waves... (first chord isnt played till
                                        he says "shallow" though)

Order

Intro
Verse 1
Pre-Chorus 1
Chorus 1
Verse 2
Pre-Chorus 2
Chorus 2
Outro

************************************

| /   slide up
| \   slide down
| h   hammer-on
| p   pull-off
| ~   vibrato
| +   harmonic
| x   Mute note
| b   Bend
| pb  Pre-bend
| br  Bend release
| pbr Pre-bend release
| brb Bend release bend

************************************
Suggest correction
What's this?
You can suggest a correction to this tab. Community and Mods will review your correction and vote to approve or reject it.
comments
print report bad tab
3 comments total.
0 reply
tank555666 133 wrote on June 26 2010, 02:40 pm

Oh man, 5 stars!!!!
PLEASE tab out 'As Much As I Ever Could'.

0 reply
Willowickie 29 wrote on August 21 2010, 04:20 pm

This is a good tab. Like the others it varies slightly but this is probably the most accurate here on UG 5*

0 reply
Roarz 123 wrote on May 10 2013, 06:24 am

omg thankyou for the tab! 5/5

guest
You may want to rate the tab now too:
select rating
Please do not post tabs as comments. Select "correction" instead!