Oops, an error
Loading. Please wait.

Boiled Frogs Tab

version 1
version 1

Intro

Whole song

Interactive

8,341 views 3 this week
4 commentsread comments
1 2 3 4 5
x 5
add to favorites
launch autoscroll
font size
0
reset
how to read this tab
guitar tuner
Autoscroll
slow
fast
+/-
esc
set tempo
stop
Help us to improve Ultimate-Guitar.com Take our survey!
×
Author
Band:Alexisonfire
Song:Boiled Frogs
Album:Crisis
Pic colour:GREEN

Alright so this is an awesome song off alexisonfires album crisis.
This guitar int he intro is great so i thought id put it up.

INtro
e|---------------------------------|
B|---------------------------------|
G|---------------------------------|
D|-88--------------888-------------|
A|----4h6-888-4h6------4h6-888-4h6-|
E|---------------------------------|

e|--------------------------------------------|
B|--------------------------------------------|
G|--------------------------------------------|
D|-11-11-11--------------11-11-11-------------|
A|----------4h6-888-4h6-----------4h6-8888----|
E|--------------------------------------------|

Thankyou and Goodnight
Suggest correction
comments
print report bad tab
4 comments total. Showing first comments.
0 reply
livefastdiefun 20 Aug 17, 2006 01:36 PM

im pretty sure he uses slide chordsss
as in...

[half step down]

e-|------------
b-|------------
g-|--16--9-11-9
d-|--x---x-x--x
a-|--14--7-9--7
E-|------------

along those lines
i havnt put the rhythm all that shit in..
but it's like that..
go figure

0 reply
invisible_mann 10 Aug 19, 2006 11:13 AM

right timing and root notes.
people dont be lazy and just fiddle around with it!

0 reply
edthebassist 502 Sep 09, 2006 11:46 PM

just not right. its supposed to be power chords without the middle fret. and wrong tuning (EbAbDbGbBbEb)
--------------
--------------
-16-----------
-------8------
-14-----------
--------------
^ ^
this not

guest
You may want to rate the tab now too:
select rating
Wanna post a correction for this tab? Suggest correction