Oops, an error
Loading. Please wait.

Boiled Frogs Tab

version 2
version 2

Intro

Whole song

Interactive

1,552 views 1 this week
no commentswrite comment
1 2 3 4 5
please rate
add to favorites
launch autoscroll
font size
0
reset
how to read this tab
guitar tuner
Autoscroll
slow
fast
+/-
esc
set tempo
stop
Help us to improve Ultimate-Guitar.com Take our survey!
×
Difficulty
Tuning
novice
D A D G B E
Tabbed by; tezza_3697
Tuning: Drop D


Need To work on the rest of the song,
this is the Intro for now.


Intro 
e|-----------------------------|    
b|-----------------------------|       
g|-----------------------------|    
d|--8-8-8-8--8-6---------------|       
a|--------------6-8--8-8-8-8-6-|       
D|-----------------------------|       
                                       
e|-----------------------------|    
b|-----------------------------|       
g|-----------------------------|    
d|--8-8-8-8--8-6---------------|       
a|--------------6-8--8-8-8-8-6-|       
D|-----------------------------|                                       

e|-----------------------------|       
b|-----------------------------|       
g|--6-6-6-6--6-----------------|     
d|------------6----------------|       
a|-------------6-8--8-8-8-8-6--|       
D|-----------------------------|    

e|-----------------------------|       
b|-----------------------------|       
g|--6-6-6-6--6-----------------|     
d|------------6----------------|       
a|-------------6-8--8-8-8-8-6--|       
D|-----------------------------|  

e|-----------------------------|    
b|-----------------------------|       
g|-----------------------------|    
d|--8-8-8-8--8-6---------------|       
a|--------------6-8--8-8-8-8-6-|       
D|-----------------------------|       
                                       
e|-----------------------------|    
b|-----------------------------|       
g|-----------------------------|    
d|--8-8-8-8--8-6---------------|       
a|--------------6-8--8-8-8-8-6-|       
D|-----------------------------|                                       

e|-----------------------------|       
b|-----------------------------|       
g|--6-6-6-6--6-----------------|     
d|------------6----------------|       
a|-------------6-8--8-8-8-8-6--|       
D|-----------------------------|    

e|-----------------------------|       
b|-----------------------------|       
g|--6-6-6-6--6-----------------|     
d|------------6----------------|       
a|-------------6-8--8-8-8-8----|  Hold last note.     
D|-----------------------------|


Basic Verse Outline.

e|-----------------------------------------------|    
b|-----------------------------------------------|       
g|-----------------------------------------------|    
d|-8-8-8-8-8-8-8-8-11-11-11-11-4-4-4-4-3-3-1-1\6\|
a|-8-8-8-8-8-8-8-8-11-11-11-11-4-4-4-4-3-3-1-1\6\|
D|-8-8-8-8-8-8-8-8-11-11-11-11-4-4-4-4-3-3-1-1\6\|
     
That is the basic outline for the verse,
it changes every time it is played.

I'm going to update this once i have finished the rest of the song.

Rate And Comment Please.

Tez

Suggest correction
What's this?
You can suggest a correction to this tab. Community and Mods will review your correction and vote to approve or reject it.
comments
We did not receive enough feedback on this tab! Please rate:
print report bad tab
1 2 3 4 5
guest
You may want to rate the tab now too:
select rating
Please do not post tabs as comments. Select "correction" instead!