Oops, an error
Loading. Please wait.

Born And Raised Tab

version 1
version 1

Whole song

9,664 views 3 this week
1 commentread comment
1 2 3 4 5
worth learning
x 6
add to favorites
launch autoscroll
font size
0
reset
how to read this tab
guitar tuner
Autoscroll
slow
fast
+/-
esc
set tempo
stop
Help us to improve Ultimate-Guitar.com Take our survey!
×
Difficulty
intermediate
Tuning Drop D then half step down. (This is what i use and sounds good)

This is my first tab, and sounds pretty much spot on.

This is for the basic Rhythm section of the song. Not the lead. Incredible song by 
lots of fun to play!

Strumming patterns are self explanatory, have a listen to the track for timing, how many 
to play the chords etc etc

Intro


---------------------------|
---------------------------|
---------------------------|
----7---5----2---3---------|
----7---5----2---3---------|  Repeat...
----7---5----2---3---------|

Verse...this section of guitar starts up when these words are sung


Countless lessons lie in every fever dream
A million voices asking, what does it all mean? "

-----------------|
-----------------|
-----------------|
-----------------|
-----------------|
---3/7\3---------| x4 (Have a listen to the track to get the timing right for this part)

Chorus

I’ve lost all direction
I’ve lost all my direction
And now I wish, that I would have believed
Could have believed

---------------------------|
---------------------------|
---------------------------|
----7---5----2---3---------|
----7---5----2---3---------|
----7---5----2---3---------|

then it does this for the second part of the chorus

"Escape, escape
Nature’s indifferent hand
Retreat, retreat
To the bliss of our creation"


--------------------------------|
--------------------------------|
--------------------------------|
----7---7----3---7---7--3---5---|
----5---7----3---5---7--3---5---|
--------7----3-------7--3---5---|

then it go's back into the main part for the remainder of the chorus

---------------------------|
---------------------------|
---------------------------|
----7---5----2---3---------|
----7---5----2---3---------|
----7---5----2---3---------|


Verse 2

"Two hands come together to pray for greater yields
Two poles of a compass guided by a field
In the mind of every man, two ghosts dance
Was this place made, or was it here by chance?"

-----------------|
-----------------|
-----------------|
-----------------|
-----------------|
---3/7\3---------| x4

I havent figured out verse 3 yet...its slightly different...Will edit it when i have 
it properly.

Then go back into the main chorus part, and your done.

It sounds pretty much spot on to me. As i said its only for the rhythm guitar, not lead. 
still bits and pieces missing, but this is the main guts of the song


any queries email me at jgfmarsh@gmail.com
Suggest correction
comments
print report bad tab
1 comment total.
0 reply
6ionthe6y 10 wrote on March 2 2010, 01:54 pm

What's up with the verse? It's completely wrong...

guest
You may want to rate the tab now too:
select rating
Please do not post tabs as comments. Select "correction" instead!