Oops, an error
Loading. Please wait.

Born And Raised Tab

version 2
version 2

Whole song

17,419 views 24 this week
3 commentsread comments
1 2 3 4 5
excellent!
x 8
add to favorites
launch autoscroll
font size
0
reset
how to read this tab
guitar tuner
Tab Pro tools
  • play this tab
  • loop segment
  • change instrument
  • show fretboard
  • metronome
×
Best way to learn
"Born And Raised"
Autoscroll
slow
fast
+/-
esc
set tempo
stop
Contributor
-------------------------------------------------------------------------------
			     BORN AND RAISED - Alexisonfire
-------------------------------------------------------------------------------
Tabbed by: Richard Hatton
Email: 

Tuning: Half a step down.


Intro:
I can't see anything wrong with PassivePenguin's intro so BIG credit to him!

eb|-------------------------------------------------------------------------|
Bb|----------8-/12h13p12----------------------------------------------------|
Gb|----5h7/9-------------12-/7-5-4-------------2p0-2-7p5-5--5h7-------------|
Db|-/7-----------------------------2-0h2-5p2-5----------7-7-----------------|
Ab|-------------------------------------------------------------------------|
Eb|-------------------------------------------------------------------------|

eb|-------------------------------------------------------------------------|
Bb|----8-8-10p8-10--12------------------------------------------------------|
Gb|--/9-9------9-------12-9p7/5-5h7p5-7^--7p5-------------------------------|
Db|----------------------------7-------------7------------------------------|
Ab|-------------------------------------------5-3-h5p3-2------3-5^-3-5p3----|
Eb|------------------------------------------------------5p3h5--------------|

eb|------------------------------0~-----------------------------------------|
Bb|------------------------------1~-----------------------------------------|
Gb|---------5-5/4-4-2-0----------2~-----------------------------------------|
Db|---------7-7/5-5-3-2-0h2p0----2~-----------------------------------------|
Ab|-2-3p2--------------------3-2-0~-----------------------------------------|
Eb|------3----------------------------\-------------------------------------|





Verse:
This is quite simple when you get the hang of it. Lots of slides give this the effect


eb|--------------------------------------------------------------------------|
Bb|--------------------------------------------------------------------------|
Gb|--------------------------------------------------------------------------| X3
Db|-----------5-5-5-5--------------------------------------------------------|
Ab|---------------------------------------3/5---5-5-5---5\3-0----------------|
Eb|----3/5------------------5\3-0--------------------------------------------|

 			Then do this on the 4th turn
eb|--------------------------------------------------------------------------|
Bb|--------------------------------------------------------------------------|
Gb|--------------------------------------------------------------------------| 
Db|-----------5-5-5-5--------------------------------------------------------|
Ab|---------------------------------------5/7---7-7-7---7\5-0----------------|
Eb|----3/5------------------5\3-0--------------------------------------------|




Pre Chorus:  "I've lost all direction"

eb|--------------------------------------------------------------------------|
Bb|--------------------------------------------------------------------------|
Gb|--------------------------------------------------------------------------|
Db|---7-7-7-7-7-7------5-5-5-5-5-5------2-2-2-2-2-2------3-3-3-3-3-3---------|X2
Ab|---7-7-7-7-7-7------5-5-5-5-5-5------2-2-2-2-2-2------3-3-3-3-3-3---------|
Eb|---5-5-5-5-5-5------3-3-3-3-3-3------0-0-0-0-0-0------1-1-1-1-1-1---------|
								
								  Then play

eb|-----------------------------------------------------------|   --------|
Bb|-----------------------------------------------------------|   --------|
Gb|---7-7-7-7-7-7-7-7-7---------------------------------------|X2 --------|To link into 
Db|---7-7-7-7-7-7-7-7-7---7---3-3-3-3-3-3-3-3-3-3-3-3-3-3-3-3-|   --5-5-5-|the chorus
Ab|---5-5-5-5-5-5-5-5-5---7---3-3-3-3-3-3-3-3-3-3-3-3-3-3-3-3-|   --5-5-5-|
Eb|-----------------------5---1-1-1-1-1-1-1-1-1-1-1-1-1-1-1-1-|   --3-3-3-|







Chorus: "we were born and raised

eb|--------------------------------------------------------------------------|
Bb|--------------------------------------------------------------------------|
Gb|--------------------------------------------------------------------------|
Db|---7-7-7-7-7-7------5-5-5-5-5-5------2-2-2-2-2-2------3-3-3-3-3-3---------|X2
Ab|---7-7-7-7-7-7------5-5-5-5-5-5------2-2-2-2-2-2------3-3-3-3-3-3---------|
Eb|---5-5-5-5-5-5------3-3-3-3-3-3------0-0-0-0-0-0------1-1-1-1-1-1---------|




Verse:

Pre Chorus:

Chorus:  



Breakdown							
eb|------------------------------------------------| 
Bb|------------------------------------------------|  
Gb|------------------------------------------------|
Db|------------------------------------------------| 
Ab|------------------------------5--3--0-----------|  
Eb|--5-5-5--3-3-3--1-1-1--0-0-0--------------------| 

eb|------------------------------------------------|
Bb|------------------------------------------------|
Gb|------------------------------------------------|
Db|------------------------------------------------|
Ab|------------------------------5--3--0-----------|
Eb|--5-5-5--3-3-3--1-1-1--0-0-0--------------------|

eb|-----------------------------------------------------------------------|
Bb|-----------------------------------------------------------------------|
Gb|-----------------------------------------------------------------------|
Db|-----------------------------------------------------------------------|
Ab|------------------------------5--3--0--------------5-5-5-5-------------|
Eb|--5-5-5--3-3-3--1-1-1--0-0-0--------------------------------1-1-1-1--3-|


Chorus: Link to the chorus by playing the A5





************************************

| /   slide up
| \   slide down
| h   hammer-on
| p   pull-off
| ~   vibrato
| +   harmonic
| x   Mute note
| b   Bend
| pb  Pre-bend
| br  Bend release
| pbr Pre-bend release
| brb Bend release bend

comments
print report bad tab
3 comments total.
0 reply
mikevilla wrote on March 8 2011, 12:17 am

first part should be:


|---------------------------------------------------------------------|
|----------8-/12h13p12------------------------------------------------|
|----5h7/9-------------12-/7-5-4-------------2p0-2-7p5-5--5h7---------|
|-/7-----------------------------2—0h2-5p2-5----------7-7-------------|
|---------------------------------------------------------------------|
|---------------------------------------------------------------------|

0 reply
mikevilla wrote on March 8 2011, 12:18 am

sorry, meant to say:



|---------------------------------------------------------------------|
|----------8-/12h13p12------------------------------------------------|
|----5h7/9-------------*14*-/7-5-4-------------2p0-2-7p5-5--5h7---------|
|-/7-----------------------------2—0h2-5p2-5----------7-7-------------|
|---------------------------------------------------------------------|
|---------------------------------------------------------------------|

+1 reply
MGRAcoustic wrote on March 22 2011, 05:23 pm

Not how i hear it, i get:

eb|-------------------------------------------------------------------------|
Bb|----------8-/12h13p12----------------------------------------------------|
Gb|----5h7/9-------------9--/7-5-4-------------2p0-2-7p5-5--5h7-------------|
Db|-/7-----------------------------2-0h2-5p2-5----------7-7-----------------|
Ab|-------------------------------------------------------------------------|
Eb|-------------------------------------------------------------------------|

I want to post or [tab]
guest
You may want to rate the tab now too:
select rating
Please do not post tabs as comments. Select "correction" instead!