Oops, an error
Loading. Please wait.

Charlie Sheen Vs Henry Rollins Tab

version 2
version 2

Whole song

3,839 views 1 this week
no commentswrite comment
1 2 3 4 5
excellent!
x 5
add to favorites
launch autoscroll
font size
0
reset
how to read this tab
guitar tuner
Tab Pro tools
  • play this tab
  • loop segment
  • change instrument
  • show fretboard
  • metronome
Autoscroll
slow
fast
+/-
esc
set tempo
stop
Contributor
I am pretty sure this is 100% correct if not let me know. mikey_t_style@hotmail.com. i 
looking for a correct one and couldnt find one so i thought i should put this up.

Standard e drop down 1/2step

Intro

Guitar 1: you dont have to put the 10fret on but i find it gives it something more also 
can work out the strumming for it. its prety easy

:-----------------------------|
:7--7--7--7--7--7--7--7--7----|
:9--9--9--9--9--9--9--9--9----|
:-----------------------------|
:10-10-10-10-10-10-10-10-10---|
:-----------------------------|

Guitar 2

:-----------------------------|
:-----------------------------|
:------------------9--9--9----|
:-----------------------------|
:------------------7--7--7----|
:-----------------------------|

Guitar 2 : do the harmonics

:------------|
:---7--------|
:-5---7------|
:------------|
:------------|
:------------|


first part of the verse

Guitar 1: its not that hard to work out the strumming all the notes are there

:-----------------------------------------------|
:-----------------------------------------------|
:-----------------------------------------------|
:9999999977777774455555555----------------------|
:7777777777777772233333333----5----5----5--5/7--|
:00000000555555522333333332-2--2-2--2-2--2------|


Guitar 2

:---------------------------------------------------10h12--|
:----------------------------------------------------------|
:----77------7h9-------------------------------------------|
:--99--99--99----77777774455555555--------------0----------|
:77------77------77777772233333333---5----5----------------|
:----------------555555522333333332-2--2-2--2-2------------|


Guitar 1: second part of the verse

:-----------------------------------------|
:-----------------------------------------|
:-----------------------------------------|
:9999999977777774455555555555555577-------|
:7777777777777772233333333333333355-------|
:0000000055555552233333333333333355-------|

Guitar 2

:-----------------------------------------------------|
:-----------------------------------------------------|
:----77------7h9-----454-2h4p2p0----------------------|
:--99--99--99----7777------------55555555555555577----|
:77------77------7777------------33333333333333355----|
:----------------5555------------33333333333333355----|

Chorus

Guitar 1

:-----------------------------------------------|
:-----------------------------------------------|
:999999997777777755555555-----------------------|
:999999997777777755555555-----------------------|
:777777775555555533333333----5----5----5--5/7---|
:------------------------2-2--2-2--2-2--2-------|

Guitar 2

:---------------------------------------------------10h12--|
:----------------------------------------------------------|
:----77------7h9-7777777755555555--------------------------|
:--99--99--99----7777777755555555--------------0-----------|
:77------77------5555555533333333---5----5-----------------|
:--------------------------------2-2--2-2--2-2-------------|


Guitar 1

:-----------------------------------------|
:-----------------------------------------|
:-----------------------------------------|
:9999999977777774455555555555555577-------|
:7777777777777772233333333333333355-------|
:0000000055555552233333333333333355-------|


Guitar 2

:----------------------------------------------|
:----------------------------------------------|
:----77------7h9-------------------------------|
:--99--99--99----77777774455555555555555577----|
:77------77------77777772233333333333333355----|
:----------------55555552233333333333333355----|


Then just play the intro again

Guitar 1

:-----------------------------|
:7--7--7--7--7--7--7--7--7----|
:9--9--9--9--9--9--9--9--9----|
:-----------------------------|
:10-10-10-10-10-10-10-10-10---|
:-----------------------------|

Guitar 2

:-----------------------------|
:-----------------------------|
:------------------9--9--9----|
:-----------------------------|
:------------------7--7--7----|
:-----------------------------|


Guitar 1 & 2: both hit the harmonics and hold

:----
:-5--
:-5--
:----
:----
:----

Bridge

Guitar 1

:---------------------------------------------|
:---------------------------------------------|
:---------------------------------------------|
:222222222222225/77\22222222222225/77\222-----|
:22222222222222-----2222222222222-----222-----|
:000000000000003/55\00000000000003/55\000-----|
                                      Play these last 3 muted and just repeat the 
until next verse. you can figure out whats going on

Guitar 2


:-----------------------------------------------------------| you will come
:---------------------------------------------8p7---8p7-----| back in on the
:------------------------------------------------7h9---7h9--| slide from
:222222222222225/77\22222222222225/77\222-------------------| 3rd to 5th
:22222222222222-----2222222222222-----222-------------------|
:000000000000003/55\00000000000003/55\000-------------------|


Verse 2

Guitar 1

:--------------------------------------------------------|
:----------------8p7---8p7-------------------------------|
:--77--77--77--7----7h9---7h9--------------------77h9p7--|
:99--99--99--99--------------77h9p7--77h9p7--77h9--------|
:----------------------------------10------10------------|
:--------------------------------------------------------|

Guitar 2

:-----------------------------------------------|
:-----------------------------------------------|
:-----------------------------------------------|
:9999999977777774455555555----------------------|
:7777777777777772233333333----5----5----5--5/7--|
:00000000555555522333333332-2--2-2--2-2--2------|

Guitar 1: second part of second verse

:--------------------------------------------------------|
:----------------8p7---8p7-------------------------------|
:--77--77--77--7----7h9---7h9--------------------77h9p7--|
:99--99--99--99--------------77h9p7--77h9p7--77h9--------|
:----------------------------------10------10------------|
:--------------------------------------------------------|

Guitar 2

:---------------------------------------------|
:---------------------------------------------|
:------------454-2h4p2p0----------------------|
:999999997777------------55555555555555577----|
:777777777777------------33333333333333355----|
:000000005555------------33333333333333355----|

2nd Chorus

Guitar 1

:--------------------------------------------------------|
:----------------8p7---8p7-------------------------------|
:--77--77--77--7----7h9---7h9--------------------77h9p7--|
:99--99--99--99--------------77h9p7--77h9p7--77h9--------|
:----------------------------------10------10------------|
:--------------------------------------------------------|

Guitar 2: play it all muted

:-----------------------------------------------|
:-----------------------------------------------|
:999999997777777755555555-----------------------|
:999999997777777755555555-----------------------|
:777777775555555533333333----5----5----5--5/7---|
:------------------------2-2--2-2--2-2--2-------|


Guitar 1

:--------------------------------------------------------|
:----------------8p7---8p7-------------------------------|
:--77--77--77--7----7h9---7h9--------------------77h9p7--|
:99--99--99--99--------------77h9p7--77h9p7--77h9--------|
:----------------------------------10------10------------|
:--------------------------------------------------------|


Guitar 2: play this muted aswell

:-----------------------------------------|
:-----------------------------------------|
:-----------------------------------------|
:9999999977777774455555555555555577-------|
:7777777777777772233333333333333355-------|
:0000000055555552233333333333333355-------|

Part that leads back into the bridge

Guitar 1:Once again you can work out the strumming for it.

:----------------------|
:----------------------|
:9-9-9-9-9-9-9-9-9-9---|
;----------------------|
:7-7-7-7-7-7-7-7-7-7---|
;----------------------|

Guitar 2: you can hear when this comes in

:00000000000000--
:877777873/5555--
:----------------|
:----------------|
:----------------|
:----------------| then you will change to play this part while Guitar 1 still plays the 
you can hear when it changes

Guitar 2

:-----------------------------|
:7--7--7--7--7--7--7--7--7----|
:9--9--9--9--9--9--9--9--9----|
:-----------------------------|
:10-10-10-10-10-10-10-10-10---|
:-----------------------------|


Bridge

Guitar 1

:---------------------------------------------|
:---------------------------------------------|
:---------------------------------------------|
:222222222222225/77\22222222222225/77\222-----|
:22222222222222-----2222222222222-----222-----|
:000000000000003/55\00000000000003/55\000-----|


Guitar 2

:---------------------------------------------------------|
:-------------------------------------------8p7---8p7-----|
:----------------------------------------------7h9---7h9--|
:222222222222225/77\22222222222225/77\222-----------------|
:22222222222222-----2222222222222-----222-----------------|
:000000000000003/55\00000000000003/55\000-----------------|


Then it will change into this part

Guitar 1 & 2

:---------------------------------------------------|
:---------------------------------------------------|
:---------------------------------------------------|
:777777777777777445555555555555555777777777777777\--
:---------------223333333333333333------------------
:555555555555555223333333333333333555555555555555\--


Then just play the bridge to end the song

Guitar 1 & 2: you can work out how many times it does it before it ends


:------------------------------------------|
:------------------------------------------|
:------------------------------------------|
:222222222222225/77\22222222222225/77\-----|
:22222222222222-----2222222222222----------|
:000000000000003/55\00000000000003/55\-----|


Once again if you have any problems let me know cheers.

mikey_t_style@hotmail.com
comments
print report bad tab
I want to post or [tab]
guest
You may want to rate the tab now too:
select rating
Please do not post tabs as comments. Select "correction" instead!