Oops, an error
Loading. Please wait.

Crisis Tab

version 1
version 1

Whole song

Interactive

6,928 views 9 this week
1 commentread comment
1 2 3 4 5
x 4
add to favorites
launch autoscroll
font size
0
reset
how to read this tab
guitar tuner
Autoscroll
slow
fast
+/-
esc
set tempo
stop
Help us to improve Ultimate-Guitar.com Take our survey!
×
Author
Tuning
D A D G B E
Band:Alexisonfire
SonG:Crisis
Album:Crisis
Tuning:DADGBe(DROP D)
Pic Colour:green


OK im new to tabbing so go easy on me. So here it is the song crisis of the album 
Yeah It’s a great song and there a great band. So yeah I this sounds qlright to me, there may 
some bits that are a bit off.

I put lyrics in to show when to play bits but if your still confused listen to the song 
u should know.


IntrO

(Numbers in brackets are optional I think it sounds more full with them)

Guitar 1
(Guitar 1’s part played twice)

e|-------------------------—-----------|
B|-------------------------------------|
G|----6h8-8-b8--6h8-8-b8—6h8-8---------|x3
D|-------------------------------------|
A|-------------------------------------|
D|-------------------------------------|

e|------------------------------------|
B|------------------------------------|
G|------b8-b8-b8-b8-b8-b8-b8-b8-------|
D|------------------------------------|
A|------------------------------------|
D|------------------------------------|


Guitar 2

e|----------------------|
B|----------------------|
G|----------------------|
D|--1----------1--------|
A|--1----------1--------|
D|--1----------1--------|


e|------------------------------------|
B|------------------------------------|
G|------------------------------------|
D|--1----------1------22222-44444-----|
A|--1----------1------22222-44444-----|
D|--1----------1------22222-44444-----|


BOTH GUITARS
(NOTE: those are 1’s NOT 11’s)

e|-------------------------------------------|
B|-------------------------------------------|
G|-------------------------------------------|
D|-0h1111-0h1111-0h1-1----222222-444444------|x2
A|-0h1111—0h1111-0h1-1x3--222222-444444------|
D|-0h1111—0h1111-0h1-1—---222222-444444------|

VersE 1
PART ONE.
Guitar one (Guitar one’s bit played twice)

“The temperature is through the floor…”
e|----------------------------|
B|----------------------------|
G|--6h8-8-b8-6h8-b8—6h8-8-----|X3
D|----------------------------|
A|----------------------------|
D|----------------------------|

“One nine seven seven…”

e|------------------------------------|
B|------------------------------------|
G|------b8-b8-b8-b8-b8-b8-b8-b8-------|
D|------------------------------------|
A|------------------------------------|
D|------------------------------------|

Guitar two

(played in the “One nine seven seven…” bit)
e|-----------------------|
B|-----------------------|
G|-----------------------|x2
D|--222222222222---------|
A|--222222222222---------|
D|--222222222222---------|


PART TWO- “You’re never gonna see the summer…”
(NOTE: those are 1’s NOT 11’s)

Guitar one
e|-------------------------------------------|
B|-------------------------------------------|
G|-------------------------------------------|
D|-0h1111-0h1111-0h1-1----222222-111111111111|x2
A|-0h1111—0h1111-0h1-1x3--222222-X-X-X-X-X-X-|
D|-0h1111—0h1111-0h1-1—---222222-9-9-9-9-9-9-|

Guitar Two

e|-------------------------------------------|
B|-------------------------------------------|
G|-------------------------------------------|
D|-0h1111-0h1111-0h1-1----222222-444444------|x2
A|-0h1111—0h1111-0h1-1x3--222222-444444------|
D|-0h1111—0h1111-0h1-1—---222222-444444------|


BridgE (gap between the verses 1 and 2)

      **Silence**


“One nine seven seven…”
guitar one
e|------------------------|
B|------------------------|
G|------b8-b8-b8-b8-------|
D|------------------------|
A|------------------------|
D|------------------------|
Guitar two
e|------------|
B|------------|
G|------------|
D|--22222-----|
A|--22222-----|
D|--22222-----|


VersE 2

Guitar one (Guitar ones bit played twice)
e|----------------------------|
B|----------------------------|
G|--6h8-8-b8-6h8-b8—6h8-8-----|X3
D|----------------------------|
A|----------------------------|
D|----------------------------|

e|-----------------------|
B|-----------------------|
G|-----------------------|
D|--222222222222---------|
A|--222222222222---------|
D|--222222222222---------|

Guitar 2
(NOTE: Those are 1’s NOT 11’s)

e|------------------------------------------------------|
B|----------------------------b8-b8-b8-b8-b8-b8-b8-b8---|
G|------------------------------------------------------|x2
D|--22211-----11--22211---------------------------------|
A|---------444------------------------------------------|
D|------------------------------------------------------|


ChoruS

Guitar Two
e|-----------------------------------------------|
B|-----------------------------------------------|
G|-----------------------------------------------|x2
D|----222222222211111111114444444442222222222----|
A|----222222222211111111114444444442222222222----|
D|----222222222211111111114444444442222222222----|

Guitar One
e|-----------------------------------------------|
B|-----------------------------------------------|
G|------8~---8—6~--6/8~--------11-8-6~--6/8------|
D|--6-6----6--------------6/9--------------------|
A|-----------------------------------------------|
D|-----------------------------------------------|

e|---------------------------------------------------------------------|
B|---------------------------------------------------------------------|
G|-----8-8-8-8-8----88-8-8-8-8-8-88----8-8-8-8-8-88----8-8-8-8-8-88----|
D|--66-6-6-6-6-6-66-66-6-6-6-6-6-66-66-6-6-6-6-6-66-66-6-6-6-6-6-66----|
A|---------------------------------------------------------------------|
E|---------------------------------------------------------------------|
PM…………………………………………………………………………………………………………………………………………………

After CHORUS (between chorus and verse)

Guitar 1
(Guitar 1’s part played twice)


e|-------------------------—-----------|
B|-------------------------------------|
G|----6h8-8-b8--6h8-8-b8—6h8-8---------|x3
D|-------------------------------------|
A|-------------------------------------|
D|-------------------------------------|

e|------------------------------------|
B|------------------------------------|
G|------b8-b8-b8-b8-b8-b8-b8-b8-------|
D|------------------------------------|
A|------------------------------------|
D|------------------------------------|


Guitar 2

e|----------------------|
B|----------------------|
G|----------------------|
D|--1----------1--------|
A|--1----------1--------|
D|--1----------1--------|


e|------------------------------------|
B|------------------------------------|
G|------------------------------------|
D|--1----------1------22222-44444-----|
A|--1----------1------22222-44444-----|
D|--1----------1------22222-44444-----|


VersE 3
(NOTE: those are 1’s NOT 11’s)

e|-------------------------------------------|
B|-------------------------------------------|
G|-------------------------------------------|
D|-0h1111-0h1111-0h1-1----222222-111111111111|x2
A|-0h1111—0h1111-0h1-1x3--222222-X-X-X-X-X-X-|
D|-0h1111—0h1111-0h1-1—---222222-9-9-9-9-9-9-|

Guitar Two


e|-------------------------------------------|
B|-------------------------------------------|
G|-------------------------------------------|
D|-0h1111-0h1111-0h1-1----222222-444444------|x2
A|-0h1111—0h1111-0h1-1x3--222222-444444------|
D|-0h1111—0h1111-0h1-1—---222222-444444------|

BridgE

**Bass Drums and Vocals**


FinaL ChoruS

Guitar Two
e|-----------------------------------------------|
B|-----------------------------------------------|
G|-----------------------------------------------|x2
D|----222222222211111111114444444442222222222----|
A|----222222222211111111114444444442222222222----|
D|----222222222211111111114444444442222222222----|

Guitar One
e|-----------------------------------------------|
B|-----------------------------------------------|
G|------8~---8—6~--6/8~--------11-8-6~--6/8------|
D|--6-6----6--------------6/9--------------------|
A|-----------------------------------------------|
D|-----------------------------------------------|

e|---------------------------------------------------------------------|
B|---------------------------------------------------------------------|
G|-----8-8-8-8-8----88-8-8-8-8-8-88----8-8-8-8-8-88----8-8-8-8-8-88----|
D|--66-6-6-6-6-6-66-66-6-6-6-6-6-66-66-6-6-6-6-6-66-66-6-6-6-6-6-66----|
A|---------------------------------------------------------------------|
E|---------------------------------------------------------------------|
PM…………………………………………………………………………………………………………………………………………………

EnD SolO

Guitar Two
e|-----------------------------------------------|
B|-----------------------------------------------|
G|-----------------------------------------------|x2
D|----222222222211111111114444444442222222222----|
A|----222222222211111111114444444442222222222----|
D|----222222222211111111114444444442222222222----|

Guitar One
e|-----------------------------------------------|
B|-----------------------------------------------|
G|------8~---8—6~--6/8~--------11-8-6~--6/8------|
D|--6-6----6--------------6/9--------------------|
A|-----------------------------------------------|
D|-----------------------------------------------|

e|---------------------------------------------------------------------|
B|---------------------------------------------------------------------|
G|-----8-8-8-8-8----88-8-8-8-8-8-88----8-8-8-8-8-88----8-8-8-8-8-88----|
D|--66-6-6-6-6-6-66-66-6-6-6-6-6-66-66-6-6-6-6-6-66-66-6-6-6-6-6-66----|
A|---------------------------------------------------------------------|
E|---------------------------------------------------------------------|
PM…………………………………………………………………………………………………………………………………………………


Finish WitH

Guitar one
e|---------------------------|
B|---------------------------|
G|---------8-6---------------|
D|-------------6~------------|
A|---------------------------|
D|---------------------------|

Guitar two
e|---------------------------|
B|---------------------------|
G|---------------------------|
D|----222—-2~----------------|
A|----222-—2~----------------|
D|----222-—2~----------------|

| /  slide up
| \  slide down
| h  hammer-on
| p  pull-off
| ~  vibrato
| +  harmonic
| x  Mute note


Thankyou and Goodnight
Suggest correction
comments
print report bad tab
1 comment total.
0 reply
alex z 291 Dec 11, 2007 11:41 PM

sweet

guest
You may want to rate the tab now too:
select rating
Wanna post a correction for this tab? Suggest correction