Oops, an error
Loading. Please wait.

Crisis Bass Tab

version 2
version 2

Whole song

Interactive

525 views 1 this week
1 commentread comment
1 2 3 4 5
please rate
add to favorites
launch autoscroll
font size
0
reset
guitar tuner
Autoscroll
slow
fast
+/-
esc
set tempo
stop
Help us to improve Ultimate-Guitar.com Take our survey!
×
Author
flat tuning, 100%

Intro (00:00 – 00:19)

Gb|-----------------------------------------|
Db|-----------------------------------------|
Ab|-----------------------------------------|
Eb|-0---0-------0---0---1-1-1-11-3-3-3-33---|

Intro 2 (00:19 – 00:38)

Gb|-------------------------|
Db|-------------------------|
Ab|-------------------------| x2 
Eb|-0h1-222-0h1-222-0h1-2---|

Gb|-------------------------------------------| 
Db|-------------------------------------------|
Ab|-------------------------------------------|
Eb|-0h1-222-0h1-222-0h1-2-1-1-1-1-1-3-3-3-3---|

Gb|-------------------------|
Db|-------------------------|
Ab|-------------------------| x2 
Eb|-0h1-222-0h1-222-0h1-2---|

Gb|-------------------------------------------| 
Db|-------------------------------------------|
Ab|-------------------------------------------|
Eb|-0h1-222-0h1-222-0h1-2-1-1-1-1-1-3-3-3-3---|

Verse (00:38 – 01:19)

Gb|-------------------|
Db|-------------------|
Ab|-------------------| x2 
Eb|-1-1-1-1-1-1-1-1---|

Gb|-------------------------|
Db|-------------------------|
Ab|-------------------------| x2 
Eb|-0h1-222-0h1-222-0h1-2---|

Gb|-------------------------------------------| 
Db|-------------------------------------------|
Ab|-------------------------------------------|
Eb|-0h1-222-0h1-222-0h1-2-1-1-1-1-1-3-3-3-3---|

Gb|-------------------------|
Db|-------------------------|
Ab|-------------------------| x2 
Eb|-0h1-222-0h1-222-0h1-2---|

Gb|-------------------------------------------| 
Db|-------------------------------------------|
Ab|-------------------------------------------|
Eb|-0h1-222-0h1-222-0h1-2-1-1-1-1-1-3-3-3-3---|

Verse 2 (01:19 – 01:39)

Gb|-------------------| 
Db|-------------------|
Ab|-------------------| x3 
Eb|-1-1-1-1-1-1-1-1---|

Chorus (01:39 – 01:58)

Gb|----------------------------------------|
Db|----------------------------------------|
Ab|----------------------------------------|
Eb|-11111111-00000000-33333333-111111111---|

Gb|----------------------------------------|
Db|----------------------------------------|
Ab|----------------------------------------|
Eb|-11111111-00000000-33333333-111110000---|

Interlude (01:58 - 2:08)

Gb|-----------------------------|
Db|-----------------------------|
Ab|-----------------------------|
Eb|-0---0---1-1-1-11-3-3-3-33---|

Verse 3 (02:08 – 02:26)

Gb|-------------------------| 
Db|-------------------------|
Ab|-------------------------| x2 
Eb|-0h1-222-0h1-222-0h1-2---|

Gb|-------------------------------------------| 
Db|-------------------------------------------|
Ab|-------------------------------------------|
Eb|-0h1-222-0h1-222-0h1-2-1-1-1-1-1-3-3-3-3---|

Gb|-------------------------|
Db|-------------------------|
Ab|-------------------------| x2 
Eb|-0h1-222-0h1-222-0h1-2---|

Gb|-------------------------------------------| 
Db|-------------------------------------------|
Ab|-------------------------------------------|
Eb|-0h1-222-0h1-222-0h1-2-1-1-1-1-1-3-3-3-3---|

Bridge (02:26 – 02:45)

Gb|-------------------------------|
Db|-------------------------------|
Ab|-------------------------------| x3 
Eb|-0-0000-0-0000-0-0000-0-0000---|

Gb|-------------------|
Db|-------------------|
Ab|-------------------|
Eb|-0-0000-0-0000-0---|

Chorus 2 (02:45 – 03:04)

Gb|----------------------------------------|
Db|----------------------------------------|
Ab|----------------------------------------|
Eb|-11111111-00000000-33333333-111111111---|

Gb|----------------------------------------|
Db|----------------------------------------|
Ab|----------------------------------------|
Eb|-11111111-00000000-33333333-111110000---|

Outro (03:04 – 03:31)

Gb|----------------------------------------|
Db|----------------------------------------|
Ab|----------------------------------------|
Eb|-11111111-00000000-33333333-111111111---|

Gb|----------------------------------------|
Db|----------------------------------------|
Ab|----------------------------------------|
Eb|-11111111-00000000-33333333-111110000---|
Suggest correction
Give kudos to tab author, rate the tab!
1 2 3 4 5
comments
print report bad tab
1 comment total.
0 reply
weado500 73 wrote on November 20 2006, 10:43 pm

this tab is wrong, the chorus is way off

guest
You may want to rate the tab now too:
select rating
Wanna post a correction for this tab? Suggest correction