Oops, an error
Loading. Please wait.

Dogs Blood Tab

version 2
version 2

Whole song

Interactive

4,177 views 9 this week
1 commentread comment
1 2 3 4 5
accurate
x 6
add to favorites
launch autoscroll
font size
0
reset
how to read this tab
guitar tuner
Autoscroll
slow
fast
+/-
esc
set tempo
stop
Help us to improve Ultimate-Guitar.com Take our survey!
×
Author
Difficulty
Tuning
novice
C# G# C# F# A# D#
Dogs Blood
Alexisonfire
jjjddd

drop C#

D#|--------------------------------------------------------------|
A#|--------------------------------------------------------------|
F#|--------------------------------------------------------------|
C#|--------------------------------------------------------------| x4
G#|-5-5-------------5--------------5-5---------------------------|
C#|-----7-8--3--0~-----7-8--3--0~-------7-8--3--0--/5-5-0-1-0-1--|

D#|--------------------------------------------------------------|
A#|--------------------------------------------------------------|
F#|--------------------------------------------------------------|
C#|-7-7-------------7--------------7-7---------------------------| x2
G#|-5-5-7-8--3--0~--5--7-8--3--0~--5-5--7-8--3--0--/5-5-0-1-0-1--|
C#|-----7-8--3--0~-----7-8--3--0~-------7-8--3--0--/5-5-0-1-0-1--|



D#|--------------------------------------------------------------|
A#|--------------------------------------------------------------|
F#|--------------------------------------------------------------|
C#|---7~~~~~-----------------------------------------------------|
G#|---5~~~~~-----------------------------------------------------|
C#|---0~~~~~-----------------------------------------------------|



D#|--------------------------------------|
A#|--------------------------------------|
F#|--------------------------------------|
C#|-3-3-3-3------------------------------| x2
G#|-1-1-1-1-3-3-3-5-3-1-0-0-0-0-0-0-0-0--|
C#|---------3-3-3-5-3-1-0-0-0-0-0-0-0-0--|

D#|--------------------------------------|
A#|--------------------------------------|
F#|--------------------------------------|
C#|-3-3-3-3-5-5-5------------------------|
G#|-1-1-1-1-3-3-3-1-1-3-0-0-0-0-0-0-0-0--|
C#|---------------1-1-3-0-0-0-0-0-0-0-0--|

D#|-------------------------------|
A#|-------------------------------|
F#|-------------------------------|
C#|-3-3-3-3-----------------------|
G#|-1-1-1-1-3-3-3--5--------------|
C#|---------3-3-3--5--------------|



D#|--------------------------------------------------------------|
A#|--------------------------------------------------------------|
F#|--------------------------------------------------------------|
C#|-7-7-------------7--------------7-7---------------------------| x2
G#|-5-5-7-8--3--0~--5--7-8--3--0~--5-5--7-8--3--0--/5-5-0-1-0-1--|
C#|-----7-8--3--0~-----7-8--3--0~-------7-8--3--0--/5-5-0-1-0-1--|



D#|-------------------------------------------------------------------|
A#|-------------------------------------------------------------------|
F#|-------------------------------------------------------------------|
C#|---7~~~~~----------------------------------------------------------|
G#|---5~~~~~----------------------------------------------------------|
C#|---0~~~~~----------------------------------------------------------|



D#|--------------------------------------|
A#|--------------------------------------|
F#|--------------------------------------|
C#|-3-3-3-3------------------------------| x2
G#|-1-1-1-1-3-3-3-5-3-1-0-0-0-0-0-0-0-0--|
C#|---------3-3-3-5-3-1-0-0-0-0-0-0-0-0--|

D#|--------------------------------------|
A#|--------------------------------------|
F#|--------------------------------------|
C#|-3-3-3-3-5-5-5------------------------|
G#|-1-1-1-1-3-3-3-1-1-3-0-0-0-0-0-0-0-0--|
C#|---------------1-1-3-0-0-0-0-0-0-0-0--|

D#|-------------------------------|
A#|-------------------------------|
F#|-------------------------------|
C#|-3-3-3-3-----------------------|
G#|-1-1-1-1-3-3-3--5--------------|
C#|---------3-3-3--5--------------|



D#|-------------------------------|
A#|-------------------------------|
F#|-------------------------------|
C#|--7~~~~------------------------|
G#|--5~~~~------------------------|
C#|--0~~~~------------------------|



D#|----------------------------------------------------------|
A#|----------------------------------------------------------|
F#|------------------------7-----------5----------------0----|
C#|-----0-----0---0----5-----5-----7-----7------0---0h2---0--|
G#|--/5---5-5---5---/8---8-----8-8---8-----8-\3---3----------|
C#|----------------------------------------------------------|

D#|---------------------------------------------------|
A#|---3-3---------------------------------------------|
F#|--------5-5--2-2--3-3--2-2-------------------------|
C#|---------------------------3--3--3-3-2-2-5-5-------|
G#|-0~~~~---------------------------------------3/5---|
C#|-0~~~~---------------------------------------------|

D#|----------------------------------------------|
A#|----------------------------------------------|
F#|----------------------------------------------|
C#|----------------------------------------------|
G#|--5-----/-----8-----/-----3-----/-----5-------|
C#|----------------------------------------------|

D#|--------------------------------------------------------|
A#|--------------------------------------------------------|
F#|--------------------------------------------------------|
C#|--7-7-7--77--7--7-77-7--3-3-3--33-3-/--10--1010-10-10---|
G#|--5-5-5--55--5--5-55-5--3-3-3--33-3-/--10--1010-10-10---|
C#|--0-0-0--00--0--0-00-0--3-3-3--33-3-/--10--1010-10-10---|

D#|--------------------------------------------------------|
A#|--------------------------------------------------------|
F#|--------------------------------------------------------|
C#|--7~----------------------------------------------------|
G#|--5~----------------------------------------------------|
C#|--0~----------------------------------------------------|

Suggest correction
comments
print report bad tab
1 comment total.
-2 reply
disfigured-scum 61 wrote on July 2 2014, 04:15 pm, edited at 04:53 pm

****ing shitty tab

guest
You may want to rate the tab now too:
select rating
Wanna post a correction for this tab? Suggest correction