Oops, an error
Loading. Please wait.

Drunks Lovers Sinners And Saints Bass

2,353 views 1 this week
1 commentread comment
1 2 3 4 5
2 more votes to show rating
add to favorites
launch autoscroll
font size
0
reset
guitar tuner
×
Best way to learn
"Drunks Lovers Sinners And Saints"
Autoscroll
slow
fast
+/-
esc
set tempo
stop
Flat tuning

100% correct

Verse (00:00 – 00:39)

Gb|-------| 
Db|-------|
Ab|-------|
Eb|-2-2---|

Gb|-----------------------| 
Db|-----------------------|
Ab|-2-22-22-222-2-22-22---|
Eb|-----------------------|

Db|-------------------|
Ab|-------------------|
Eb|-2-2-2-2-22-2-22---|

Gb|-------| 
Db|-------|
Ab|-------|
Eb|-2-2---|

Gb|-----------------------| 
Db|-----------------------|
Ab|-2-22-22-222-2-22-22---|
Eb|-----------------------|

Db|-------------------|
Ab|-------------------|
Eb|-2-2-2-2-22-2-22---|

Gb|---------------| 
Db|---------------|
Ab|---------------|
Eb|-7\/7-77-777---|

Gb|-----------------------|
Db|-----------------------|
Ab|-2-22-22-222-2-22-22---| x2 
Eb|-----------------------|

Gb|---------------| 
Db|---------------|
Ab|---------------|
Eb|-7\/7-77-777---|

Gb|-----------------------|
Db|-----------------------|
Ab|-2-22-22-222-2-22-22---| x2 
Eb|-----------------------|

Pre-Chorus (00:39 – 00:53)

Gb|--------------------|
Db|--------------------|
Ab|-9---9-9--7--77-2---| x3 
Eb|--------------------|

Gb|-----------------------------|
Db|-----------------------------|
Ab|-9---9-9--7--77-2--2--2--2---|
Eb|-----------------------------|

Gb|----------| 
Db|----------|
Ab|----------|
Eb|-2-2/10---|

Chorus (00:53 – 01:13)

Gb|-------------|
Db|-------------|
Ab|-5-55-55-5---| x4 
Eb|-------------|

Gb|-------------|
Db|-------------|
Ab|-------------| x2 
Eb|-2-22-22-2---|

Gb|-----------------|
Db|-----------------|
Ab|-----------------|
Eb|-2-2555-2-2777---|

Gb|-------------|
Db|-------------|
Ab|-5-55-55-5---| x4 
Eb|-------------|

Gb|-------------|
Db|-------------|
Ab|-------------| x2 
Eb|-2-22-22-2---|

Gb|-----------------|
Db|-----------------|
Ab|-----------------|
Eb|-2-2555-2-2777---|

Verse 2 (01:13 – 02:04)

Eb|-------------|
Bb|-------------|
Gb|-------------| 
Db|-4-44-4-4\---|
Ab|-4-44-4-4\---|
Eb|-2-22-2-2\---|

Chorus 2 (02:04 – 02:43)

Gb|-------------|
Db|-------------|
Ab|-5-55-55-5---| x4 
Eb|-------------|

Gb|-------------|
Db|-------------|
Ab|-------------| x2 
Eb|-2-22-22-2---|

Gb|-----------------|
Db|-----------------|
Ab|-----------------|
Eb|-2-2555-2-2777---|

Gb|-------------|
Db|-------------|
Ab|-5-55-55-5---| x4 
Eb|-------------|

Gb|-------------|
Db|-------------|
Ab|-------------| x2 
Eb|-2-22-22-2---|

Gb|-----------------|
Db|-----------------|
Ab|-----------------|
Eb|-2-2555-2-2777---|

Gb|-------------|
Db|-------------|
Ab|-5-55-55-5---| x4 
Eb|-------------|

Gb|------------------|
Db|------------------|
Ab|------------------|
Eb|-2-2-2-2--22-22---| 

Gb|--------------|
Db|--------------|
Ab|--------------|
Eb|-555-2-2777---|

Gb|-------------|
Db|-------------|
Ab|-5-55-55-5---| x4 
Eb|-------------|

Gb|-------------|
Db|-------------|
Ab|-------------| x2 
Eb|-2-22-22-2---|

Gb|-----------------|
Db|-----------------|
Ab|-----------------|
Eb|-2-2555-2-2777---|

Bridge (02:43 - 03:21)

Gb|-----|
Db|-----|
Ab|-5---|
Eb|-----|

Gb|-----|
Db|-----|
Ab|-----|
Eb|-2---|

Gb|------|
Db|------|
Ab|-55---|
Eb|------|

Gb|-----|
Db|-----|
Ab|-----|
Eb|-2---|

Gb|-------------|
Db|-------------|
Ab|-5-55-55-5---| x4 
Eb|-------------|

Gb|-------------|
Db|-------------|
Ab|-------------| x2 
Eb|-2-22-22-2---|

Gb|-----------------|
Db|-----------------|
Ab|-----------------|
Eb|-2-2555-2-2777---|

Gb|-------------|
Db|-------------|
Ab|-5-55-55-5---| x4 
Eb|-------------|

Gb|-------------|
Db|-------------|
Ab|-------------| x2 
Eb|-2-22-22-2---|

Gb|-----------------|
Db|-----------------|
Ab|-----------------|
Eb|-2-2555-2-2777---|

Pre-Chorus (03:21 – 03:48)

Gb|--------------------|
Db|--------------------|
Ab|-9---9-9--7--77-2---| x3 
Eb|--------------------|

Gb|-----------------------------|
Db|-----------------------------|
Ab|-9---9-9--7--77-2--2--2--2---|
Eb|-----------------------------|

Gb|----------| 
Db|----------|
Ab|----------|
Eb|-2-2/10---|
Suggest correction
Give kudos to tab author, rate the tab!
1 2 3 4 5
comments
print report bad tab
1 comment total.
0 reply
Asthenia6 10 Mar 24, 2007 01:46 PM

it seems right except the second verse is much more dificult than that. if you listen to it you can hear the bass go all over the place.

guest
You may want to rate the tab now too:
select rating
Wanna post a correction for this tab? Suggest correction