Oops, an error
Loading. Please wait.

Get Fighted Tab

version 1
version 1

Whole song

Interactive

7,889 views 1 this week
3 commentsread comments
1 2 3 4 5
accurate
x 9
add to favorites
launch autoscroll
font size
0
reset
how to read this tab
guitar tuner
Autoscroll
slow
fast
+/-
esc
set tempo
stop
Help us to improve Ultimate-Guitar.com Take our survey!
×
Author
Drop Db


Verse:
eb|-0-0-0-0-0-0-0-0-0-0-0-0-0-0-0-0-0-0-0-0-0-0-0-0-0-0-0-0-0-0-0-0-0-0-0-0-0--|
Bb|-8-8-8-8-8-8-8-8-8-8-8-8-8-8-8-8-8-8-8-8-8-8-8-8-8-8-8-8-8-8-8-8-8-8-8-8-8--|
Gb|-5-5-5-5-5-5-5-5-5-5-5-5-5-5-5-5-5-5-5-5-5-5-5-5-5-5-5-5-5-5-5-5-5-5-5-5-5--|
Db|-7-7-7-7-7-7-7-7-7-7-7-7-7-7-7-7-7-7-7-7-7-7-7-7-7-7-7-7-7-7-7-7-7-7-7-7-7--|
Ab|----------------------------------------------------------------------------|
Db|----------------------------------------------------------------------------|\\
                                                                                 \\
eb|----------------------------------------------------------------------------| /
Bb|----------------------------------------------------------------------------|/
Gb|----------------------------------------------------------------------------|
Db|---------------------------7-7-7--7-----------------------------------------|
Ab|---------------------------7-7-7--7-----------------------------------------|
Db|---------------------------7-7-7--7-----------------------------------------|

eb|----------------------------------------------------------------------------|
Bb|----------------------------------------------------------------------------|
Gb|----------------------------------------------------------------------------|
Db|-----2h3h5-----2h3h5--3p2-------2h3h5-----2h3h5--3p2------------------------|
Ab|-0-0-------0-0--------------0-0-------0-0-----------------------------------|
Db|----------------------------------------------------------------------------|


Chorus:
eb|----------------------------------------------------------------------------|
Bb|----------------------------------------------------------------------------|
Gb|10-10-10-10-10---12-12-12-12-12-10---9---5-55-5----10---9---14---55-5-5-5---|
Db|-8--8--8--8--8---10-10-10-10-10--x-x-x-x-x-xx-x-xx--x-x-x-x--x-x-xx-x-x-x---|
Ab|-8--8--8--8--8---10-10-10-10-10--9-x-7-x-3-33-3-xx--8-x-7-x-12-x-33-3-3-3---|
Db|-8--8--8--8--8---10-10-10-10-10---------------------------------------------|\\
                                                                                 \\
eb|----------------------------------------------------------------------------| /
Bb|----------------------------------------------------------------------------|/
Gb|-10-10-10-10-10-12-12-12-12-12--10---9---5-55-5----10---9---14---55-5-5-5---|
Db|--x--x--x--x--x--x--x--x--x--x---x-x-x-x-x-xx-x-xx--x-x-x-x--x-x-xx-x-x-x---|
Ab|--8--8--8--8--8-10-10-10-10-10---8-x-7-x-3-33-3-xx--8-x-7-x-12-x-33-3-3-3---|
Db|----------------------------------------------------------------------------|

eb|----------------------------------------------------------------------------|
Bb|----------------------------------------------------------------------------|
Gb|----------------------------------------------------------------------------|
Db|----------------------------------------------------------------------------|
Ab|-3p2-3p2-3p2-3p2-3p2-3p2-3p2-3p2--5p3-5p3-5p3-5p3-5p3-5p3-5p3-5p3-----------|
Db|----------------------------------------------------------------------------|

Verse:
eb|-0-0-0-0-0-0-0-0-0-0-0-0-0-0-0-0-0-0-0-0-0-0-0-0-0-0-0-0-0-0-0-0-0-0-0-0-0--|
Bb|-8-8-8-8-8-8-8-8-8-8-8-8-8-8-8-8-8-8-8-8-8-8-8-8-8-8-8-8-8-8-8-8-8-8-8-8-8--|
Gb|-5-5-5-5-5-5-5-5-5-5-5-5-5-5-5-5-5-5-5-5-5-5-5-5-5-5-5-5-5-5-5-5-5-5-5-5-5--|
Db|-7-7-7-7-7-7-7-7-7-7-7-7-7-7-7-7-7-7-7-7-7-7-7-7-7-7-7-7-7-7-7-7-7-7-7-7-7--|
Ab|----------------------------------------------------------------------------|
Db|----------------------------------------------------------------------------|\\
                                                                                 \\
eb|----------------------------------------------------------------------------| /
Bb|----------------------------------------------------------------------------|/
Gb|----------------------------------------------------------------------------|
Db|---------------------------7-7-7--7-----------------------------------------|
Ab|---------------------------7-7-7--7-----------------------------------------|
Db|---------------------------7-7-7--7-----------------------------------------|

eb|----------------------------------------------------------------------------|
Bb|----------------------------------------------------------------------------|
Gb|----------------------------------------------------------------------------|
Db|-----2h3h5-----2h3h5--3p2-------2h3h5-----2h3h5--3p2------------------------|
Ab|-0-0-------0-0--------------0-0-------0-0-----------------------------------|
Db|----------------------------------------------------------------------------|


Interlude:
eb|----------------------------------------------------------------------------|
Bb|----------------------------------------------------------------------------|
Gb|----------------------------------------------------------------------------|
Db|-5p3p2-5p3p2-5p3p2-5p3p2--5-p-3-p-2-----------------------------------------|
Ab|----------------------------------------------------------------------------|
Db|----------------------------------------------------------------------------|\\
                                                                                 \\
eb|----------------------------------------------------------------------------| /
Bb|----------------------------------------------------------------------------|/
Gb|----------------------------------------------------------------------------|
Db|-7-7-7----------------------------------------------------------------------|
Ab|-7-7-7----------------------------------------------------------------------|
Db|-7-7-7----------------------------------------------------------------------|


eb|----------------------------------------------------------------------------|
Bb|----------------------------------------------------------------------------|
Gb|----------------------------------------------------------------------------|
Db|-5-3-2-3-2---2--------------------------------------------------------------|
Ab|-----------5---5-3-5-3-2----------------------------------------------------|
Db|----------------------------------------------------------------------------|\\
                                                                                 \\
eb|----------------------------------------------------------------------------| /
Bb|-8-6-5-6-5---6--------------------------------------------------------------|/
Gb|-----------7---7-5-7-5-4----------------------------------------------------|
Db|----------------------------------------------------------------------------|
Ab|----------------------------------------------------------------------------|
Db|----------------------------------------------------------------------------|


Chorus:
eb|----------------------------------------------------------------------------|
Bb|----------------------------------------------------------------------------|
Gb|10-10-10-10-10---12-12-12-12-12-10---9---5-55-5----10---9---14---55-5-5-5---|
Db|-8--8--8--8--8---10-10-10-10-10--x-x-x-x-x-xx-x-xx--x-x-x-x--x-x-xx-x-x-x---|
Ab|-8--8--8--8--8---10-10-10-10-10--9-x-7-x-3-33-3-xx--8-x-7-x-12-x-33-3-3-3---|
Db|-8--8--8--8--8---10-10-10-10-10---------------------------------------------|\\
                                                                                 \\
eb|----------------------------------------------------------------------------| /
Bb|----------------------------------------------------------------------------|/
Gb|-10-10-10-10-10-12-12-12-12-12--10---9---5-55-5----10---9---14---55-5-5-5---|
Db|--x--x--x--x--x--x--x--x--x--x---x-x-x-x-x-xx-x-xx--x-x-x-x--x-x-xx-x-x-x---|
Ab|--8--8--8--8--8-10-10-10-10-10---8-x-7-x-3-33-3-xx--8-x-7-x-12-x-33-3-3-3---|
Db|----------------------------------------------------------------------------|

eb|----------------------------------------------------------------------------|
Bb|----------------------------------------------------------------------------|
Gb|----------------------------------------------------------------------------|
Db|----------------------------------------------------------------------------|
Ab|-3p2-3p2-3p2-3p2-3p2-3p2-3p2-3p2--5p3-5p3-5p3-5p3-5p3-5p3-5p3-5p3-----------|
Db|----------------------------------------------------------------------------|

OUtro:

Lead Guitar:
(this isn\'t perfect yet, i\'m still working on it)
eb|----------------------13------------------------------------17--------------|
Bb|-13-13-15-15-17-17-15-----17-15h17p15--13-13-15-15-17-17-15-----17-15h17p15-|
Gb|----------------------------------------------------------------------------|
Db|----------------------------------------------------------------------------|
Ab|----------------------------------------------------------------------------|
Db|----------------------------------------------------------------------------|

Rhythm:
eb|----------------------------------------------------------------------------|
Bb|----------------------------------------------------------------------------|
Gb|-10-10-10-10-10-10-10---12-12-12-12-12-12-12-12-----------------------------|
Db|--8--8--8--8--8--8--8---10-10-10-10-10-10-10-10-----------------------------|
Ab|--8--8--8--8--8--8--8---10-10-10-10-10-10-10-10-----------------------------|
Db|--8--8--8--8--8--8--8---10-10-10-10-10-10-10-10-----------------------------|

eb|----------------------------------------------------------------------------|
Bb|----------------------------------------------------------------------------|
Gb|-10-10-10-10-10-10-10---12-12-12-12-12-12-12-12-----------------------------|
Db|--8--8--8--8--8--8--8---10-10-10-10-10-10-10-10-----------------------------|
Ab|--8--8--8--8--8--8--8---10-10-10-10-10-10-10-10-----------------------------|
Db|--8--8--8--8--8--8--8---10-10-10-10-10-10-10-10-----------------------------|

eb|----------------------------------------------------------------------------|
Bb|----------------------------------------------------------------------------|
Gb|-10---9---5-----------------------------------------------------------------|
Db|--x-x-x-x-x-----------------------------------------------------------------|
Ab|--8-x-7-x-3-----------------------------------------------------------------|
Db|----------------------------------------------------------------------------|
Suggest correction
comments
print report bad tab
3 comments total.
0 reply
182_generation 20 wrote on April 29 2005, 12:00 am

Is this a two guitar song!

0 reply
182_generation 20 wrote on April 29 2005, 12:00 am

Is this a two guitar song!

0 reply
benmossm 10 wrote on May 14 2008, 02:39 pm

Yes it is.
as well I believe the interlude ending should be changed to
-------------------------------
-------------------------------
-------------------------------
-5-3-2-3-2-0-2-----------------
---------------3-5-3-2-3-2-0-2-
------------------------------

guest
You may want to rate the tab now too:
select rating
Please do not post tabs as comments. Select "correction" instead!