Oops, an error
Loading. Please wait.

Hey Its Your Funeral Mama Tab

version 2
version 2

Interactive

9,463 views 9 this week
2 commentsread comments
1 2 3 4 5
x 10
add to favorites
launch autoscroll
font size
0
reset
how to read this tab
guitar tuner
Autoscroll
slow
fast
+/-
esc
set tempo
stop
Help us to improve Ultimate-Guitar.com Take our survey!
×
tuned down 1/2 step
listen for rhythms and repeats
tabbed by greg

intro
e-----------------------------------------------------|
B-----------------------------------------------------|
G-6-6-xxxxxxxx-6-6-xxxxxxxx-2-2-xxxxxxxx-2-2-xxxxxxxx-|
D-6-6-xxxxxxxx-6-6-xxxxxxxx-2-2-xxxxxxxx-2-2-xxxxxxxx-|
A-4-4-xxxxxxxx-4-4-xxxxxxxx-0-0-xxxxxxxx-0-0-xxxxxxxx-|
E-----------------------------------------------------|

e--------------------------------------------------------------------|
B--------------------------9~~~------------------------------12-9~~~-|
G----------------9-11p9\8---------------------------9-11p9\8---------|
D-----------9-11-------------------------------9-11------------------|
A----7-9/11-----------------------------7-9/11-----------------------|
E-/9---------------------------------/9------------------------------|

verse
e-----------------------------------------------------------|
B---------------------------109-109-109-109-109-109-109-109-|
G-6-6-xxxxxxxx-6-6-xxxxxxxx-9-9-9-9-9-9-9-9-9-9-9-9-9-9-9-9-|
D-6-6-xxxxxxxx-6-6-xxxxxxxx-7-7-7-7-7-7-7-7-7-7-7-7-7-7-7-7-|
A-4-4-xxxxxxxx-4-4-xxxxxxxx-0-0-0-0-0-0-0-0-0-0-0-0-0-0-0-0-|
E-----------------------------------------------------------|

chorus (play intro)

interlude
e---------------------------------------|
B---------------------------------------|
G/9-9-6-6---------/11 11-9-/16-13/14\13-|
D/x-x-x-x-6-6/7\6-/x--x--x-/x--x--x--x--|
A/7-7-4-4-x-x-x-x-/9--9--7-/14-11/12\11-|
E---------4-4/5\4-----------------------|

end this way first time during singing
e---------|
B---------|
G-2-------|
D-2--4----|
A-0--4----|
E----2----|

chorus (intro)

bridge
e--------------------------|
B--------------------------|
G-/16-13-11-/13-11-9-/13-6-|
D-/x--x--x--/x--x--x-/x--x-|
A-/14-11-9--/11-9--7-/11-4-|
E--------------------------|

e---------------------------|
B---------------------------|
G-9-6-4-11-9-14-13-16-------|
D-x-x-x-x--x-x--x--x--------|
A-7-4-2-9--7-12-11-14-------|
E---------------------------|

e---------------|
B---------------|
G-6-------2---6-|
D-6---4---2---6-|
A-4---4---0---4-|
E-----2---------|

chorus(intro)

done.
Suggest correction
comments
print report bad tab
2 comments total.
0 reply
CLOWNDEACAN 10 May 15, 2005 12:00 AM

arent there 2 guitar parts? good work but ur missin stuff

for the thrid time
e--------------------------------------------------|
B---------------------------109-109-109-109-12p10p9|
G-6-6-xxxxxxxx-6-6-xxxxxxxx-9-9-9-9-9-9-9-9--------|
D-6-6-xxxxxxxx-6-6-xxxxxxxx-7-7-7-7-7-7-7-7--------|
A-4-4-xxxxxxxx-4-4-xxxxxxxx-0-0-0-0-0-0-0-0--------|
E--------------------------------------------------|

0 reply
ordino 10 Feb 27, 2006 11:16 AM

sum parts are missing but still pretty good

guest
You may want to rate the tab now too:
select rating
Wanna post a correction for this tab? Suggest correction