Oops, an error
Loading. Please wait.

Hey Its Your Funeral Mama Tab

version 6
version 6

Interactive

1,762 views 1 this week
2 commentsread comments
1 2 3 4 5
please rate
add to favorites
launch autoscroll
font size
0
reset
how to read this tab
guitar tuner
Autoscroll
slow
fast
+/-
esc
set tempo
stop
Help us to improve Ultimate-Guitar.com Take our survey!
×
Author
intro_guitar two
e|---------------------------------------------|
B|---------------------------------------------|
G|-6-6--6--------------------------------------|
D|-6-6--6--------------------------------------|
A|-4-4--4--------------------------------------|
E|--------(4)(4)(4)(4)(4)(4)(4)(4)(4)(4)(4)(4)-|

e|---------------------------------------------|
B|---------------------------------------------|
G|-6-6--6--------------------------------------|
D|-6-6--6--------------------------------------|
A|-4-4--4--------------------------------------|
E|--------(4)(4)(4)(4)(4)(4)(4)(4)(4)(4)(4)(4)-|

e|---------------------------------------------|
B|---------------------------------------------|
G|---------------------------------------------|
D|-7-7--7-(4)(4)(4)(4)(4)(4)(4)(4)(4)(4)(4)(4)-|
A|-7-7--7--------------------------------------|
E|-5-5--5--------------------------------------|

e|---------------------------------------------|
B|---------------------------------------------|
G|---------------------------------------------|
D|-7-7--7-(4)(4)(4)(4)(4)(4)(4)(4)(4)(4)(4)(4)-|
A|-7-7--7--------------------------------------|
E|-5-5--5--------------------------------------|

                 whole thing x2

main riff_guitar two
e|---------------------4------------------------7-4-|
B|-------------0h5p4p2-----------------0h5p4p2------|
G|---------4h6---------------------4h6--------------|
D|------4h6---------------------4h6-----------------|
A|-2-2h4-------------------2-2h4--------------------|
E|--------------------------------------------------|

                       x2

verse_guitar two "the sky is blue, the grass is brown..."
e|---------------------------------------------|
B|---------------------------------------------|
G|-6-6--6--------------------------------------|
D|-6-6--6--------------------------------------|
A|-4-4--4--------------------------------------|
E|--------(4)(4)(4)(4)(4)(4)(4)(4)(4)(4)(4)(4)-|

e|---------------------------------------------|
B|---------------------------------------------|
G|-6-6--6--------------------------------------|
D|-6-6--6--------------------------------------|
A|-4-4--4--------------------------------------|
E|--------(4)(4)(4)(4)(4)(4)(4)(4)(4)(4)(4)(4)-|

e|------------------------------------------------------------------|
B|-10--10-99-1010-99-1010-99-1010-99-1010-99-1010-99-1010-99-1010-9-|
G|--9---9-99--9-9-99--9-9-99--9-9-99--9-9-99--9-9-99--9-9-99--9-9-9-|
D|------------------------------------------------------------------|
A|------------------------------------------------------------------|
E|------------------------------------------------------------------|

                       whole thing x3, then

"so take my hand, let's get these motors running!"
e|---------------------------------------------|
B|---------------------------------------------|
G|-6-6--6--------------------------------------|
D|-6-6--6--------------------------------------|
A|-4-4--4--------------------------------------|
E|--------(4)(4)(4)(4)(4)(4)(4)(4)(4)(4)(4)(4)-|

e|---------------------------------------------|
B|---------------------------------------------|
G|-6-6--6--------------------------------------|
D|-6-6--6--------------------------------------|
A|-4-4--4--------------------------------------|
E|--------(4)(4)(4)(4)(4)(4)(4)(4)(4)(4)(4)(4)-|

e|--------------------------------------------------------------[12]-|
B|-10--10-99-1010-99-1010-99-1010-99-12-10-9-10p9--12-10-9-10p9------|
G|--9---9-99--9-9-99--9-9-99--9-9-99---------------------------------|
D|-------------------------------------------------------------------|
A|-------------------------------------------------------------------|
E|-------------------------------------------------------------------|

chorus_guitar two "so you drive red (you drive red)..."
e|---------------------4------------------------7-4-|
B|-------------0h5p4p2-----------------0h5p4p2------|
G|---------4h6---------------------4h6--------------|
D|------4h6---------------------4h6-----------------|
A|-2-2h4-------------------2-2h4--------------------|
E|--------------------------------------------------|

                     whole thing x4

bridge_guitar two
e|-----------------------------------------|
B|-----------------------------------------|
G|-6-6--6-666666666666-6-6--6-666666666666-|
D|-6-6--6-666666666666-6-6--6-666666666666-|
A|-4-4--4-444444444444-4-4--4-444444444444-|
E|-----------------------------------------|

e|-----------------------------------------|
B|-----------------------------------------|
G|-----------------------------------------|
D|-7-7--7-777777777777-4-4--4-444444444444-|
A|-7-7--7-777777777777-4-4--4-444444444444-|
E|-5-5--5-555555555555-2-2--2-222222222222-|

               whole thing x2, then
"we don't fear, we don't fear..."
e|---------------------------------------------------|
B|---------------------------------------------------|
G|---------------------------------------------------|
D|-6-6---6-6---6-6---6-6---6-6---6-6---6-6---6-------|
A|-4-4---4-4---4-4---4-4---4-4---4-4---4-4---4-11\\\-|
E|---------------------------------------------------|

bridge cont._guitar two "...machines!"
e|-----------------------------------------|
B|-----------------------------------------|
G|-----------------------------------------|
D|-7-7--7-777777777777-4-4--4-444444444444-|
A|-7-7--7-777777777777-4-4--4-444444444444-|
E|-5-5--5-555555555555-2-2--2-222222222222-|

"i got the scoop, i got the scoop"
e|-----------------------------------------|
B|-----------------------------------------|
G|-6-6--6-666666666666-6-6--6-666666666666-|
D|-6-6--6-666666666666-6-6--6-666666666666-|
A|-4-4--4-444444444444-4-4--4-444444444444-|
E|-----------------------------------------|

"and it doesn't look so good, so good for you!"
e|-----------------------------------------|
B|-----------------------------------------|
G|-----------------------------------------|
D|-7-7--7-777777777777-4-4--4-444444444444-|
A|-7-7--7-777777777777-4-4--4-444444444444-|
E|-5-5--5-555555555555-2-2--2-222222222222-|

chorus_guitar two "so you drive red (you drive red)..."
e|---------------------4------------------------7-4-|
B|-------------0h5p4p2-----------------0h5p4p2------|
G|---------4h6---------------------4h6--------------|
D|------4h6---------------------4h6-----------------|
A|-2-2h4-------------------2-2h4--------------------|
E|--------------------------------------------------|

                     whole thing x3, then

"we'll slit these rows of goodyears like a knife..."
e|---------------------4----------------------------|
B|-------------0h5p4p2-----------------0h5p4p2--2---|
G|---------4h6---------------------4h6------------4-|
D|------4h6---------------------4h6-----------------|
A|-2-2h4-------------------2-2h4--------------------|
E|--------------------------------------------------|

bridge II_guitar two "...like a knife..."
e|---------------------------------------------------------|
B|---------------------------------------------------------|
G|-6--6-6--6--6-6--4-44444---------------------------------|
D|-6--6-6--6--6-6--4-44444--7--7-7--7--7-7--7--7-7--7--7-7-|
A|-4--4-4--4--4-4--2-22222--7--7-7--7--7-7--7--7-7--7--7-7-|
E|--------------------------5--5-5--5--5-5--5--5-5--5--5-5-|

                          whole thing x4

interlude_guitar two "...KNIFE!"
e|----------------------------------------------------|
B|----------------------------------------------------|
G|---x-6-\4---/9-9--8----11-x-14-\13-13--131313131313-|
D|-7-x-x--x----x-x--x-9---x-x--x---x--x---x-x-x-x-x-x-|
A|-x-x-4-\2---/7-7--6-x---9-x-12-\11-11---------------|
E|-5-x----------------7-----x-------------------------|

e|------------------------------------------------------------|
B|------------------------------------------------------------|
G|---x-6-\4---/9-9--8----11-x-14-\13-13--131313131313---13~~~-|
D|-7-x-x--x----x-x--x-9---x-x--x---x--x---x-x-x-x-x-x---------|
A|-x-x-4-\2---/7-7--6-x---9-x-12-\11-11-----------------------|
E|-5-x----------------7-----x---------------------------------|

interlude cont._guitar two
e|------------------------------------------------------------|
B|------------------------------------------------------------|
G|-“13~~~~----------------------------------------------------|
D|------------------------------------------------------------|
A|------------------------------------------------------------|
E|------------------------------------------------------------|

chorus/outro_guitar two "so you drive red (you drive red)..."
e|---------------------4------------------------7-4-|
B|-------------0h5p4p2-----------------0h5p4p2------|
G|---------4h6---------------------4h6--------------|
D|------4h6---------------------4h6-----------------|
A|-2-2h4-------------------2-2h4--------------------|
E|--------------------------------------------------|

                     whole thing x3, then

"we'll slit these rows of goodyears like a knife..."
e|---------------------4---------------------------|
B|-------------0h5p4p2-----------------------------|
G|---------4h6-------------------------------------|
D|------4h6----------------7--7--7--7-7------4~~~--|
A|-2-2h4-------------------7--7--7--7-7------4~~~--|
E|-------------------------5--5--5--5-5-9\\\-2~~~--|

________________________________________________________


intro_guitar one
e|-----------------------------------------|
B|-----------------------------------------|
G|-6-6--6--------------6-6--6--------------|
D|-6-6--6-xxxxxxxxxxxx-6-6--6-xxxxxxxxxxxx-|
A|-4-4--4-xxxxxxxxxxxx-4-4--4-xxxxxxxxxxxx-|
E|--------xxxxxxxxxxxx--------xxxxxxxxxxxx-|

e|-----------------------------------------|
B|-----------------------------------------|
G|-----------------------------------------|
D|-7-7--7-xxxxxxxxxxxx-7-7--7-xxxxxxxxxxxx-|
A|-7-7--7-xxxxxxxxxxxx-7-7--7-xxxxxxxxxxxx-|
E|-5-5--5-xxxxxxxxxxxx-5-5--5-xxxxxxxxxxxx-|

                 whole thing x2

main riff_guitar one
e|---------------------------------------------|
B|---------------------------------------------|
G|-6--6-6-666-4--4-4-444-----------------------|
D|-6--6-6-666-4--4-4-444-7--7-7-777-7--7-7-777-|
A|-4--4-4-444-2--2-2-222-7--7-7-777-7--7-7-777-|
E|-----------------------5--5-5-555-5--5-5-555-|

                        x2

verse_guitar one "the sky is blue, the grass is brown"
e|-----------------------------------------|
B|-----------------------------------------|
G|-6-6--6--------------6-6--6--------------|
D|-6-6--6-xxxxxxxxxxxx-6-6--6-xxxxxxxxxxxx-|
A|-4-4--4-xxxxxxxxxxxx-4-4--4-xxxxxxxxxxxx-|
E|--------xxxxxxxxxxxx--------xxxxxxxxxxxx-|

e|-----------------------------------------|
B|-----------------------------------------|
G|-----------------------------------------|
D|-7--7-7-777777777777-4--4-4-444444444444-|
A|-7--7-7-777777777777-4--4-4-444444444444-|
E|-5--5-5-555555555555-2--2-2-222222222222-|

"my head is buried inside this helmet"
e|-----------------------------------------|
B|-----------------------------------------|
G|-6-6--6--------------6-6--6--------------|
D|-6-6--6-xxxxxxxxxxxx-6-6--6-xxxxxxxxxxxx-|
A|-4-4--4-xxxxxxxxxxxx-4-4--4-xxxxxxxxxxxx-|
E|--------xxxxxxxxxxxx--------xxxxxxxxxxxx-|

e|-------------------------------------------|
B|-------------------------------------------|
G|-------------------------------------------|
D|-7--7-7-777777777777-4--4-4-444-7--7-7-777-|
A|-7--7-7-777777777777-4--4-4-444-7--7-7-777-|
E|-5--5-5-555555555555-2--2-2-222-5--5-5-555-|

"and the ever present threat of parasites"
e|-----------------------------------------|
B|-----------------------------------------|
G|-6-6--6--------------6-6--6--------------|
D|-6-6--6-xxxxxxxxxxxx-6-6--6-xxxxxxxxxxxx-|
A|-4-4--4-xxxxxxxxxxxx-4-4--4-xxxxxxxxxxxx-|
E|--------xxxxxxxxxxxx--------xxxxxxxxxxxx-|

e|-----------------------------------------|
B|-----------------------------------------|
G|-----------------------------------------|
D|-7--7-7-777777777777-4--4-4-444444444444-|
A|-7--7-7-777777777777-4--4-4-444444444444-|
E|-5--5-5-555555555555-2--2-2-222222222222-|

"so take my hand, let's get these motors running!"
e|-----------------------------------------|
B|-----------------------------------------|
G|-6-6--6--------------6-6--6--------------|
D|-6-6--6-xxxxxxxxxxxx-6-6--6-xxxxxxxxxxxx-|
A|-4-4--4-xxxxxxxxxxxx-4-4--4-xxxxxxxxxxxx-|
E|--------xxxxxxxxxxxx--------xxxxxxxxxxxx-|

e|-----------------------------------------|
B|-----------------------------------------|
G|-----------------------------------------|
D|-7--7-7-777777777777-4--4-4-444444444444-|
A|-7--7-7-777777777777-4--4-4-444444444444-|
E|-5--5-5-555555555555-2--2-2-222222222222-|

chorus_guitar one "so you drive red (you drive red)..."
e|-----------------------------------------------|
B|-----------------------------------------------|
G|-6--6-6-666-4--4-4-444-------------------------|
D|-6--6-6-666-4--4-4-444-7--7-7-777-7--7-7-777---|
A|-4--4-4-444-2--2-2-222-7--7-7-777-7--7-7-777---|
E|-----------------------5--5-5-555-5--5-5-555---|

                        x3, then

"we'll slit these rows of goodyears like a knife..."
e|-----------------------------------------------|
B|-----------------------------------------------|
G|-6--6-6-666-4--4-4-444-------------------------|
D|-6--6-6-666-4--4-4-444-7--7-7-777-7--7-7-7/99--|
A|-4--4-4-444-2--2-2-222-7--7-7-777-7--7-7-7/99--|
E|-----------------------5--5-5-555-5--5-5-5/77--|

bridge_guitar one
e|-------------------------------------------------|
B|-------------------------------------------------|
G|-9-9--6-6--4-4--------11-11--9-9--14/16-13/14\13-|
D|-x-x--x-x--x-x-6/7\6---x--x--x-x---x--x--x--x--x-|
A|-7-7--4-4--2-2-x-x-x---9--9--7-7--12/14-11/12\11-|
E|---------------4/5\4-----------------------------|

                     x4, then

"we don't fear, we don't fear..."
e|-------------------------------------------------|
B|-------------------------------------------------|
G|-9-9--6-6--4-4--------11-11--9-9--14/16-13/14\13-|
D|-x-x--x-x--x-x-6/7\6---x--x--x-x---x--x--x--x--x-|
A|-7-7--4-4--2-2-x-x-x---9--9--7-7--12/14-11/12\11-|
E|---------------4/5\4-----------------------------|

bridge cont._guitar one "...machines!"
e|-------------------------------------------------|
B|-------------------------------------------------|
G|-9-9--6-6--4-4--------11-11--9-9--14/16-13/14\13-|
D|-x-x--x-x--x-x-6/7\6---x--x--x-x---x--x--x--x--x-|
A|-7-7--4-4--2-2-x-x-x---9--9--7-7--12/14-11/12\11-|
E|---------------4/5\4-----------------------------|

                     x2, then

"and it doesn't look so good, so good for you!"
e|-----------------------------------------------------|
B|-----------------------------------------------------|
G|-9-9--6-6--4-4--------11-11--9-9--14/16-161616161616-|
D|-x-x--x-x--x-x-6/7\6---x--x--x-x---x--x--x-x-x-x-x-x-|
A|-7-7--4-4--2-2-x-x-x---9--9--7-7--12/14-141414141414-|
E|---------------4/5\4---------------------------------|

chorus_guitar one "so you drive red (you drive red)..."
e|-----------------------------------------------|
B|-----------------------------------------------|
G|-6--6-6-666-4--4-4-444-------------------------|
D|-6--6-6-666-4--4-4-444-7--7-7-777-7--7-7-777---|
A|-4--4-4-444-2--2-2-222-7--7-7-777-7--7-7-777---|
E|-----------------------5--5-5-555-5--5-5-555---|

                        x4

bridge II_guitar one "...like a knife..."
e|------------------------------------------------------|
B|------------------------------------------------------|
G|-16-16--13-13--11-11--11/1311/13--9-8--13-13--6-66666-|
D|--x--x---x--x---x--x---x--x-x--x--x-x---x--x--x-xxxxx-|
A|-14-14--11-11---9--9---9/11-9/11--7-6--11-11--4-44444-|
E|------------------------------------------------------|

                        x4

interlude_guitar one "...KNIFE!"
e|----------------------------------------------------|
B|----------------------------------------------------|
G|---x----------------11--13-13--16-16--14-1313/14\13-|
D|-4-x-7--6-/7--7/9-9--x---x--x---x--x---x--x-x--x--x-|
A|-x-x-x--x--x--x-x-x--9--11-11--14-14--12-1111/12\11-|
E|-2-x-5--4-/5--5/7-7---------------------------------|

                      x2

interlude cont._guitar one 
e|--------------------------------------------|
B|--------------------------------------------|
G|-6~~~---------------------------------------|
D|-6~~~-----------------4~~-----4-4-7--7--7-7-|
A|-4~~~-----------------4~~-----4-4-7--7--7-7-|
E|----------------------2~~-----2-2-5--5--5-5-|

                        x4

chorus/outro_guitar one "so you drive red (you drive red)..."
e|-----------------------------------------------|
B|-----------------------------------------------|
G|-6--6-6-666-4--4-4-444-------------------------|
D|-6--6-6-666-4--4-4-444-7--7-7-777-7--7-7-777---|
A|-4--4-4-444-2--2-2-222-7--7-7-777-7--7-7-777---|
E|-----------------------5--5-5-555-5--5-5-555---|

                        x3, then

"we'll slit these rows of goodyears like a knife..."
e|-----------------------------------------------|
B|-----------------------------------------------|
G|-6--6-6-666-4--4-4-444-------------------------|
D|-6--6-6-666-4--4-4-444-7--7--7--7-7------4~~~--|
A|-4--4-4-444-2--2-2-222-7--7--7--7-7------4~~~--|
E|-----------------------5--5--5--5-5------2~~~--|

_______________________________________________________


each chorus_guitar three
e|-----------------------------------------------|
B|-----------------------------------------------|
G|-----------------------------------------------|
D|-----------------------------------------------|
A|-----------------------------------------------|
E|-----------------------------------------------|

                      x3, then

"we'll slit these rows of goodyears like a knife..."
e|----------------------------------|
B|-17========-16========-14========-|
G|----------------------------------|
D|----------------------------------|
A|----------------------------------|
E|----------------------------------|

interlude cont._guitar three
e|-----------------------------------------------|
B|-----------------------------------------------|
G|-----------------------------------------------|
D|-----------------------------------------------|
A|-----------------------------------------------|
E|-----------------------------------------------|

                      x2, then

e|-12-----11---------------12-----11--------------|
B|--------------12~--------------------12-12------|
G|-------------------------------------------13~--|
D|------------------------------------------------|
A|------------------------------------------------|
E|------------------------------------------------|

e|-12-----11-------------------------------------------------------|
B|--------------12--------------------12---12/14-14141414141414~~~-|
G|------------------13~--11-11h13p11-------------------------------|
D|-----------------------------------------------------------------|
A|-----------------------------------------------------------------|
E|-----------------------------------------------------------------|

chorus/outro_guitar three "so you drive red (you drive red)..."
e|-----------------------------------------------|
B|-“14~~~~~~-------------------------------------|
G|-----------------------------------------------|
D|-----------------------------------------------|
A|-----------------------------------------------|
E|-----------------------------------------------
Suggest correction
What's this?
You can suggest a correction to this tab. Community and Mods will review your correction and vote to approve or reject it.
comments
We did not receive enough feedback on this tab! Please rate:
print report bad tab
1 2 3 4 5
2 comments total.
0 reply
Wobbler 786 wrote on September 19 2006, 07:45 am

nice copy

0 reply
glowskulls 116 wrote on January 11 2007, 01:03 pm

lameee

guest
You may want to rate the tab now too:
select rating
Please do not post tabs as comments. Select "correction" instead!