Oops, an error
Loading. Please wait.

Mailbox Arson tab

version 1
version 1

Whole song

Interactive

2,286 views 3 this week
no commentswrite comment
1 2 3 4 5
2 more votes to show rating
add to favorites
×
Save as Personal and add changes to this tab that will be seen only by you. Learn more ›
×
You can save this tab as Personal to edit and correct it or add notes. All changes will be seen only by you. Learn more »
launch autoscroll
font size
0
reset
how to read this tab
guitar tuner
edit
Autoscroll
slow
fast
+/-
esc
set tempo
stop
Author
Difficulty
Alexisonfire-Mailbox Arson
Tuning-One step down

Intro:
(00:00)
*Your mail is not safe in this town
Eb------------|l
Bb------------|l
Gb------------|l
Db-6666666----|l
Ab-4444444----|l
Eb------------|l
(0:15)
*strike a Red Bird
Eb----------------|l
Bb----------------|l
Gb----------------|l
Db----------------|l
Ab-4444-2-7-2-4---|l
Eb----------------|l
(00:27)
*Burn all your precious
Eb--------------------------------------------------------------|l
Bb-9p0-0-7p0-0-5p0-4-0-5-0-7-0--9p0-0-7p0-0-5p0-2-0-4-0-7-0-----|l
Gb--------------------------------------------------------------|l
Db--------------------------------------------------------------|l
Ab--------------------------------------------------------------|l
Eb--------------------------------------------------------------|l
Chorus:
(00:48)
*Your mail is not safe in this town
Eb-----------------------------|l
Bb-----------------------------|l
Gb-----------------------------|l
Db-666666-222222---------------|l
Ab-444444-000000-4444-22222----|l
Eb----------------22222-00000--|l
Verse:
(1:19)
Eb----------------|l
Bb----------------|l
Gb----------------|l
Db----------------|l
Ab-4444-2-7-2-4---|l
Eb----------------|l

Eb--------------------------------------------------------------|l
Bb-9p0-0-7p0-0-5p0-4-0-5-0-7-0--9p0-0-7p0-0-5p0-2-0-4-0-7-0-----|l
Gb--------------------------------------------------------------|l
Db--------------------------------------------------------------|l
Ab--------------------------------------------------------------|l
Eb--------------------------------------------------------------|l
(1:42)
*Mailbox arson; My sweet revenge
Eb-16-14------------|l
Bb-------16h17-14---|l
Gb------------------|l
Db------------------|l
Ab------------------|l
Eb------------------|l
(1:52)
*Strike a match, burn away
Eb----------------------|l
Bb-17-14-12=-19-17-14---|l
Gb----------------------|l
Db----------------------|l
Ab----------------------|l
Eb----------------------|l
(2:06)
*Burn away every tie that binds me to this place
Eb------------------------------------------------|l
Bb------------------------------------------------|l
Gb-999999-------11-11-11-11-11--------------------|l
Db--------999999----------------11-11-11-11-11----|l
Ab------------------------------------------------|l
Eb------------------------------------------------|l
(2:46)
CHORUS

(3:31)
Eb--------l
Bb-4====l
Gb-7====l
Db--------|l
Ab--------|l
Eb--------|l
Le fin.

            
            
Suggest correction
Creating personal tab
Creating personal tab
You can edit any tab online and save it as your Personal.

You can edit, replace or remove any tab part or add personal notes – all changes will be seen only by you.

Personal tabs can be accessed anytime from any device, even offline.
Learn more »
Give kudos to tab author, rate the tab!
1 2 3 4 5
comments
print report bad tab
guest
You may want to rate the tab now too:
select rating
Wanna post a correction for this tab? Suggest correction